Log in

One click and you are in

Login with Facebook Login with Google

Why sign up and log in

Guitar Tabs Explorer
Machinemade God guitar tabs for For those who care

Guitar tabs

-------------------------------------------------------------------------------
                             For Those Who Care - Machinemade god
-------------------------------------------------------------------------------
Tabbed by: Austin O'Donnell-Gert
I think it's pretty close. Probably not perfect but whatever.

Tuning: Drop A chord diagramC majorC (C,G,C,F,A,D)
Intro/Main Riff
e|-----------------------------------------------------------------------------|
B|-----------------------------------------------------------------------------|
G|-----------------------------------------------------------------------------|
D|---------------------------------------7--0------------------5/7-7-----------|
A|-000---000--000--000--5--3--5---/8-7-8----0---000--000--000--3/5-5----5/77---|
E|-000---000--000--000----------0-----------0---000--000--000--------0--5/77---|


e|------------------------------------------------------------------------------|
B|------------------------------------------------------------------------------|
G|------------------------------------------------------------------------------|
D|-0----------------------------------------------------------------------------|
A|-0---000--000--000--5--3--5---/8-7-8--8---7---12--------8---12---8------------|
E|-0---000--000--000----------0-----------8---8----8--000---0----0--------------|


Verse
e|---------------------------------------------------------------------------|
B|---------------------------------------------------------------------------|
G|---------------------------------------------------------------------------|
D|---------------------------------------------------------------------------|
A|-000--0000--0001--0-----000--0-0-0-7---0-10-10-10--------------------------|
E|-000--0000--0001--0-----000--0-0-0-7---0-10-10-10--------------------------|

Play intro again

Play verse again

2nd verse

e|---------------------------------------------------------------------------|
B|---------------------------------------------------------------------------|
G|---------------------------------------------------------------------------|
D|---------------------------------------------------------------------------|
A|-0000000000000000--0000--0001-------0000000000000000---0-0-0-7--0-0-0-10---|
E|-0000000000000000--0000--0001-------0000000000000000---0-0-0-7--0-0-0-10---|


Bridge


e|---------------------------------------------------------------------------|
B|---------------------------------------------------------------------------|
G|---------------------------------------------------------------------------|
D|-3---5---7---3---5---7---8---5---7---8---10----7-----8----10---12---8------|
A|---------------------------------------------------------------------------|
E|---0---0---0---0---0---0---0---0---0---0----0-----0-----0----0----0--------|


Main riff


Verse

2nd Bridge

e|---------------------------------------------------------------------------|
B|---------------------------------------------------------------------------|
G|---------------------------------------------------------------------------|
D|-3---5---7---3---5---7---8---5---7---8---10---8---12---10---8---7----------|
A|---------------------------------------------------------------------------|
E|---0---0---0---0---0---0---0---0---0---0----0---0----0----0---0------------|


e|---------------------------------------------------------------------------|
B|---------------------------------------------------------------------------|
G|-----------------------------------------------------------10--------------|
D|-------------------------------------------------------10-----12--10-------|
A|-5--7--8--5--7--8--10--7--8--10--12--8--10--12--10--12---------------12--10|
E|--0--0--0--0--0--0---0--0--0---0---0--0------------------------------------|

e|---------------------------------------------------------------------------|
B|------------------------------------------------------10-------------------|
G|------------------------------------------------------10-------------------|
D------SAME--AS--FIRST--PART----------------------10----10---00--------------|
A|----------------------------------------10--12-------------00--------------|
E|---------------------------------------------------0-------00--------------|


Verse


Main Riff


Bridge 2
e|---------------------------------------------------------------------------|
B|---------------------------------------------------------------------------|
G|---------------------------------------------------------------------------|
D|-0---2---3---5---0---2---3---10--------------------------------------------|
A|-0---2---3---5---0---2---3---10--------------------------------------------|
E|-0---2---3---5---0---2---3---10--------------------------------------------|

e|---------------------------------------------------------------------------|
B|---------------------------------------------------------------------------|
G|---------------------------------------------------------------------------|
D|-0-----------------2-----------------3-----------------5-------------------|
A|-0--000--000--000--2--222--222--222--3--333--333--333--5--555--555--555----|
E|-0--000--000--000--2--222--222--222--3--333--333--333--5--555--555--555----|

e|---------------------------------------------------------------------------|
B|---------------------------------------------------------------------------|
G|---------------------------------------------------------------------------|
D|-0-----------------2-----------------3-----------------10------------------|
A|-0--000--000--000--2--222--222--222--3--333--333--333--10--101010--101010--|
E|-0--000--000--000--2--222--222--222--3--333--333--333--10--101010--101010--|


Main Riff


Outro
e|---------------------------------------------------------------------------|
B|---------------------------------------------------------------------------|
G|---------------------------------------------------------------------------|
D|0--------------------------------------------------------------------------|
A|0-000--000--000--000--000--000--000--000--000--8-7---10---7---8------------|
E|0-000--000--000--000--000--000--000--000--000------0----0---0--------------|
|

e|------------------------------------------------------------------------------|
B|------------------------------------------------------------------------------|
G|------------------------------------------------------------------------------|
D|0-----------------------------------------------------------------------------|
A|0-000--000--000--000--000--0--888--8---12---8-----8p0-------------------------|
E|0-000--000--000--000--000--0--888----8----8---000-----8-8*--------------------|

e|------------------------------------------------------------------------------|
B|------------------------------------------------------------------------------|
G|------------------------------------------------------------------------------|
D|0-----------------------------------------------------------------------------|
A|0-000--000--000--000--000--000--000--000--000--000--000--000--000-------------|
E|0-000--000--000--000--000--000--000--000--000--000--000--000--000-------------|

e|------------------------------------------------------------------------------|
B|------------------------------------------------------------------------------|
G|------------------------------------------------------------------------------|
D|0-----------------------------------------------------------------------------|
A|0-000--000--000--000--000--0------8---12--------8p0---8*----------------------|
E|0-000--000--000--000--000--0--888---8----8--000-----8-------------------------|

e|------------------------------------------------------------------------------|
B|------------------------------------------------------------------------------|
G|------------------------------------------------------------------------------|
D|0-----------------------------------------------------------------------------|
A|0-000--000--000--000--000--000--000--000--000--000--000--000--000-------------|
E|0-000--000--000--000--000--000--000--000--000--000--000--000--000-------------|

e|---------------------------------------------------------------------------|
B|---------------------------------------------------------------------------|
G|---------------------------------------------------------------------------|
D|0---------------------------------------------------------0--0-------------|
A|0-000--000--000--000--000--0------8---12--------8---12----0--0-------------|
E|0-000--000--000--000--000--0--888---8----8--000---0----0--0--0-------------|
************************************

| /   slide up
| \   slide down
| h   hammer-on
| p   pull-off
| ~   vibrato
| +   harmonic
| x   Mute note
| b   Bend
| pb  Pre-bend
| br  Bend release
| pbr Pre-bend release
| brb Bend release bend

Almost there ...

Sign in to get your own page with links to favourite songs and more. You are just one click away...

Login with Facebook Login with Google