Log in

One click and you are in

Login with Facebook Login with Google

Why sign up and log in

Guitar Tabs Explorer
Machine Head bass tabs for The blood the sweat the tears

The Blood The Sweat The Tears bass tab by Machine Head

Machine Head bass tabs for The blood the sweat the tears

Bass tabs

ARTIST-MACHINE HEAD
ALBUM-THE BURNING RED
SONG-THE BLOOD, THE SWEAT, THE TEARS
TABBED BY-NICK BILLINGTON

THE BURNING RED WASN'T THEIR BEST ALBUM
BUT THIS IS A DECENT SONG.
TUNING (B, F#, B, E, A)

NOTATION

r-rest

MAIN/CHORUS RIFF

------------------------------
------------------------------
------------------------------
------------------------------
-3-1-0--4-1-1--3-1-0--4-1-1--4-

------------------------------
------------------------------
------------------------------
------------------------------
-3-1-0--4-1-1--3-1-0--4-1-1--6-


BRIDGE

---------
---------
---------
---------
-6-6-6-6-

VERSE

----------------------------
----------------------------
----------------------------
----------------------------
-0-1-0-----r-1-0-----11111111-

THEN.....

---------------------------
---------------------------
----------------------1-1--
-------3--------3----------
-0-1-0---0--1-0---0-1-------


BRIDGE (ALSO PLAYED ON THE MELODIC PART)

--------------------
--------------------
-------------------- FAST PICKIN ON GUITARS
-3------------------
---------6----------

OK I THINK THAT PRETTY MUCH ALL OF IT.

Almost there ...

Sign in to get your own page with links to favourite songs and more. You are just one click away...

Login with Facebook Login with Google