Log in

One click and you are in

Login with Facebook Login with Google

Why sign up and log in

Guitar Tabs Explorer
Machine Head guitar tabs for The blood  the sweat  the tears

The Blood The Sweat The Tears tab by Machine Head

Machine Head guitar tabs for The blood  the sweat  the tears

Guitar tabs

Machine Head- The Blood, The, Sweat, The Tears
Tabbed by Bloodtaster


Tuning low to high: B, F#, B, E, G#, A chord diagramC#C#
|--0-----------|
|--0-----------|
|--0-----------|
|--0-----------|
|--0-----------|
|--0-----------|


Riff 1 (chorus riff)
|-----------------------------------------|
|-----------------------------------------|
|-----------------------------------------|
|--------------------------------------4--|
|--------------------------------------4--|
|--1-1-0---3-3-1---1-1-0---3-3-1-------4--|
 P.m -     - -     - -     - -

|-----------------------------------------|
|-----------------------------------------|
|-----------------------------------------|
|--------------------------------------6--|
|--------------------------------------6--|
|--1-1-0---3-3-1---1-1-0---3-3-1-------6--|
 p.m -     - -     - -     - -


|--------------|
|--------------|
|--------------|
|--6--6--6--6--|
|--6--6--6--6--|
|--6--6--6--6--|


Verse pt 1

|-------------------|       |-------------------|
|-------------------|       |-------------------|
|-------------------|       |--8-8-8-8-8-8-8-8--|
|-------------------|       |-------------------|
|-------------------|       |--6-6-6-6-6-6-6-6--|
|--1-1-1-1-1-1-1-1--| x 3   |-------------------|
 p.m - - - - - - -


Verse pt 2

|------------------------------------------|
|------------------------------------------|
|-----------5--------5-----8-8-8-8-8-8-8-8-|
|--0--1--0--5--0--1--5--0------------------|
|--0--1--0--3--0--1--3--0--6-6-6-6-6-6-6-6-|
|--0--1--0-----0--1-----0------------------|


Pre-chorus 1

Strumming
|-------------------------|
|-------------------------|
|--5----------------------|
|------------------6------|
|--3----------------------|
|------------------6------|


Verse pt 2 x2


Pre-chorus 2

Strumming
|--------------------------|
|--------------------------|
|--5---------------8-------|
|--------------------------|
|--3---------------6-------|
|--------------------------|
with pre-chorus 1


Chorus x2


Verse pt1


Verse pt2


Pre-chorus 3

Strumming
|-----------------------------|
|-----------------------------|
|--5---------8--10--12--13----|
|-----------------------------|
|--3---------6---8--10--11----|
|-----------------------------|
with pre-chorus 1


Chorus x2


Break

|-----------------------------|
|-----------------------------|
|-----------5--------5--------|
|--0--1--0--5--0--1--5--0-----|
|--0--1--0--3--0--1--3--0--5^-|
|--0--1--0-----0--1-----0-----|  x4


|-----------------------------|
|-----------------------------|
|-----------5--------5--------|
|--0--1--0--5--0--1--5--0 5^--|
|--0--1--0--3--0--1--3--0-----|
|--0--1--0-----0--1-----0-----|


Solo
|--------------------------------15--------------------|
|--15-16-15-16-15-16-15-16-15-16----15-16-15-18-15-----|
|------------------------------------------------------|
|------------------------------------------------------|
|------------------------------------------------------|
|------------------------------------------------------| x 2

|--15^-15^-15^---15^15----15---------|
|----------------------18-----18-17--|
|------------------------------------|
|------------------------------------|
|------------------------------------|
|------------------------------------|


|--18^--18-16-15-16-15-----15----------------------------|
|-----------------------18-----16-18-16-15-16-15---------|
|--------------------------------------------------17-15-|
|--------------------------------------------------------|
|--------------------------------------------------------|
|--------------------------------------------------------|


|---------------------------------------------------------------------------|
|---------------------------------------------------------------------------|
|--17-------15--17----------------------------------------------------------|
|-------------------18----17------15^----------------------15^--------------|
|------------------------------------18p17--15----13--15-------18p17--15----|
|---------------------------------------------------------------------------|


Pre-chorus 4

Strumming
|-----------------------------------------------------------------------|
|-----------------------------------------------------------------------|
|--5------8--------------8----7----5---7---8---10---12---13---15---16---|
|-----------------6-----------------------------------------------------|
|--3------6--------------6----5----3---5---6----8---10---11---13---14---|
|-----------------4-----------------------------------------------------|
with pre-chorus 1


Chorus 2

------------------------------------------------------|
------------------------------------------------------|
-----------------------------------8-8-8-8-8-8-8-8----|
------------------------------------------------------|
-----------------------------------6-6-6-6-6-6-6-6----|
--1-1-0---3-3-1---1-1-0---3-3-1-----------------------| x4
P.m -     - -     - -     - -


|-------------------------------------|
|-------------------------------------|
|-----------5--------5----------------|
|--0--1--0--5--0--1--5--0-------------|
|--0--1--0--3--0--1--3--0---x--------|
|--0--1--0-----0--1-----0---x--------| repeat until end
                            pick slide

Almost there ...

Sign in to get your own page with links to favourite songs and more. You are just one click away...

Login with Facebook Login with Google