Log in

One click and you are in

Login with Facebook Login with Google

Why sign up and log in

Guitar Tabs Explorer
Machine Head guitar tabs for Ten ton hammer

Guitar tabs

Tuning: Drop A chord diagramBB (A chord diagramBB A chord diagramF#F# A chord diagramBB A chord diagramFF A chord diagramG#G# A chord diagramC#C#)


Note: Notice the 3rd string tuning, it is tuned from A chord diagramE MajorE to F. Don't ask me why,
it makes the harmonics sound better. Robb Flynn said it himself.
Intro (x4):

C#|-------------------------------------------|
G#|--9----------9----------9------------------|
A chord diagramFF |--11---------11---------11-----------------|
A chord diagramBB |-----0-0-0-0----0-0-0-0----0-0-0-0--3-6-5--|
F#|-----0-0-0-0----0-0-0-0----0-0-0-0--3-6-5--|
A chord diagramBB |-----0-0-0-0----0-0-0-0----0-0-0-0--3-6-5--|
        . . . .    . . . .    . . . .

Transition:

C#|-----------------------|
G#|-----------------------|
A chord diagramFF |-----------------------|
A chord diagramBB |-----------------------|
F#|--6/86-6/86/86/86--|
A chord diagramBB |-----------------------|


Main Riff (x4):

C#|-------------------------|
G#|-------------------------|
A chord diagramFF |-------------------------|
A chord diagramBB |--1-0--0-1-0-0--1-0-1-0--|
F#|--1-0--0-1-0-0--1-0-1-0--|
A chord diagramBB |--1-0--0-1-0-0--1-0-1-0--|

Verse (x2):(Use tremelo picking for last part.)

C#|---------------------------------------------|--------------|
G#|---------------------------------------------|--------------|
A chord diagramFF |---------5*---------5*---------5*---------5*-|--------------|
A chord diagramBB |--3-0--0-----3-0--0-----3-0--0-----3-0--0----|-0-66/55/4/3--|
F#|--3-0--0-----3-0--0-----3-0--0-----3-0--0----|-0-66/55/4/3--|
A chord diagramBB |--3-0--0-----3-0--0-----3-0--0-----3-0--0----|-0-66/55/4/3--|


Pre-Chorus (x2):

C#|--------------------------------------------------|
G#|--------------------------------------------------|
A chord diagramFF |--------------------------------------------------|
A chord diagramBB |------2-2-2-2----2-2-2-0-----2-2-2-2-----2-2-2-0--|
F#|----2----------2-----------2-----------2----------|
A chord diagramBB |--2----------3-----------2-----------3------------|


Chorus (x3):

C#|-----------------------------------|
G#|-----------------------------------|
A chord diagramFF |-----------------------------------|
A chord diagramBB |--2--2-2--2--2-2---3--3-3--3--3-3--|
F#|--2--2-2--2--2-2---3--3-3--3--3-3--|
A chord diagramBB |--2--2-2--2--2-2---3--3-3--3--3-3--|
        . .     . .      . .     . .

Transition:

C#|-----------------------|
G#|-----------------------|
A chord diagramFF |-----------------------|
A chord diagramBB |-----------------------|
F#|--6/86-6/86/86/86--|
A chord diagramBB |-----------------------|


Main Riff (x4):

C#|-------------------------|
G#|-------------------------|
A chord diagramFF |-------------------------|
A chord diagramBB |--1-0--0-1-0-0--1-0-1-0--|
F#|--1-0--0-1-0-0--1-0-1-0--|
A chord diagramBB |--1-0--0-1-0-0--1-0-1-0--|


Verse (x2):
(Use tremelo picking for last part.)

C#|---------------------------------------------|--------------|
G#|---------------------------------------------|--------------|
A chord diagramFF |---------5*---------5*---------5*---------5*-|--------------|
A chord diagramBB |--3-0--0-----3-0--0-----3-0--0-----3-0--0----|-0-66/55/4/3--|
F#|--3-0--0-----3-0--0-----3-0--0-----3-0--0----|-0-66/55/4/3--|
A chord diagramBB |--3-0--0-----3-0--0-----3-0--0-----3-0--0----|-0-66/55/4/3--|


Pre-Chorus (x2):

C#|--------------------------------------------------|
G#|--------------------------------------------------|
A chord diagramFF |--------------------------------------------------|
A chord diagramBB |------2-2-2-2----2-2-2-0-----2-2-2-2-----2-2-2-0--|
F#|----2----------2-----------2-----------2----------|
A chord diagramBB |--2----------3-----------2-----------3------------|


Chorus (x3):

C#|-----------------------------------|
G#|-----------------------------------|
A chord diagramFF |-----------------------------------|
A chord diagramBB |--2--2-2--2--2-2---3--3-3--3--3-3--|
F#|--2--2-2--2--2-2---3--3-3--3--3-3--|
A chord diagramBB |--2--2-2--2--2-2---3--3-3--3--3-3--|
        . .     . .      . .     . .


Bridge (x2):

C#|---------------------------------------|
G#|---------------------------------------|
A chord diagramFF |---------------------------------------|
A chord diagramBB |----7-6---7-6---7-6---7-6-(6)-(6)/24--|
F#|---------------------------------------|
A chord diagramBB |--0-----1-----0-----1------------------|


Bridge (Continued):

C#|---------------------------------|
G#|---------------------------------|
A chord diagramFF |---------------------------------|
A chord diagramBB |-----------------------x///////--|
F#|--x-x-0--x-x-0--x-x-0--x///////--|
A chord diagramBB |--x-x-0--x-x-0--x-x-0--x///////--|

Climax (x4):
(Play last section on forth time through, strumming)

C#|--------------------------------|-----|
G#|--------------------------------|--5--|
A chord diagramFF |--------------------------------|-----|
A chord diagramBB |--2-3/6-0-2-x-x--2-3/6-0-2-x-x--|--3--|
F#|--2-3/6-0-2-x-x--2-3/6-0-2-x-x--|-----|
A chord diagramBB |--2-3/6-0-2-x-x--2-3/6-0-2-x-x--|-----|


Pre-Chorus (x4):

C#|--------------------------------------------------|
G#|--------------------------------------------------|
A chord diagramFF |--------------------------------------------------|
A chord diagramBB |------2-2-2-2----2-2-2-0-----2-2-2-2-----2-2-2-0--|
F#|----2----------2-----------2-----------2----------|
A chord diagramBB |--2----------3-----------2-----------3------------|


Chorus (x3):

C#|-----------------------------------|-----|
G#|-----------------------------------|--5--|
A chord diagramFF |-----------------------------------|-----|
A chord diagramBB |--2--2-2--2--2-2---3--3-3--3--3-3--|--3--|
F#|--2--2-2--2--2-2---3--3-3--3--3-3--|-----|
A chord diagramBB |--2--2-2--2--2-2---3--3-3--3--3-3--|-----|
        . .     . .      . .     . .


Outro (x4):

C#|-------------------------|
G#|-------------------------|
A chord diagramFF |-------------------------|
A chord diagramBB |--1-0--0-1-0-0--1-0-1-0--|
F#|--1-0--0-1-0-0--1-0-1-0--|
A chord diagramBB |--1-0--0-1-0-0--1-0-1-0--|

Almost there ...

Sign in to get your own page with links to favourite songs and more. You are just one click away...

Login with Facebook Login with Google