Log in

One click and you are in

Login with Facebook Login with Google

Why sign up and log in

Guitar Tabs Explorer
Machine Head guitar tabs for Silver

Guitar tabs

"Silver" by Machine head.
from the album "The burning red"

Tuned down to B.


riff 1                              riff 2
b -------8------8-------7------7--|---------|
g ---12-----12------10-----10-----|---------|
d --------------------------------|---10----|
a --------------------------------|---------|
e --------------------------------|---------|
A chord diagramBB --------------------------------|---------|


riff 3                        riff 4        riff 5          riff 6
b ------------------------|--------------|-------------|---------------------|
g ------------------------|--------------|-------------|---------------------|
d -----7--9--10-----------|--------------|-9--7--------|---------------------|
a --2--7--9--10-----------|--3--3--5--5--|-9--7--8--5--|--2--2--3--10-10-10--|
e --2--5--7--8------------|--3--3--5--5--|-7--5--8--5--|--2--2--3--8--8--8---|
A chord diagramBB --0------------3--1--0--|--1--1--3--3--|-------6--3--|--0--0--1------------|

  riff 7                    riff 8           riff 9                      riff 10
b------------------------|--------------|------10-----10------9------9--|-----|
g -----------------------|--------------|--14-----14------12-----12-----|-----|
d -----4--6--7-----------|--------------|-------------------------------|--12-|
a --4--2--4--5-----------|--5--5--7--7--|-------------------------------|-----|
e --4--------------------|--5--5--7--7--|-------------------------------|-----|
A chord diagramBB --2-----------5--3--2--|--3--3--5--5--|-------------------------------|-----|
The song:

intro. delay
2x riff 1
1x riff 2
4x riff 1
1x riff 2
4x riff 1


chorus. distorsion
3x riff 3
1x riff 4
3x riff 3
1x riff 4

  delay
4x riff 1
1x riff 2
4x riff 1


chorus. distorsion
3x riff 3
1x riff 4
3x riff 3
1x riff 4


bridge. distorsion
3x riff 5


chorus. distorsion
4x riff 6
3x riff 7
1x riff 8
3x riff 7
1x riff 8
3x riff 7
3x riff 8


outro. delay
2x riff 9
1x riff 10

Almost there ...

Sign in to get your own page with links to favourite songs and more. You are just one click away...

Login with Facebook Login with Google