Log in

One click and you are in

Login with Facebook Login with Google

Why sign up and log in

Guitar Tabs Explorer
Machine Head guitar chords for Message in a bottle

Guitar chords

Album: The Burning Red

Tabbed by Meni.

Drop A chord diagramD MajorD tuning (yes, yes, I know Machine Head have double-step drop A chord diagramBB tuning,
but who the hell wants to detune their guitar to play one song? Especially
when it can be done like this and sounds just like the CD).
Intro/Verse
   A chord diagramC5C5          A chord diagramA5A5         A chord diagramB5B5            A chord diagramF#5F#5
e----------------------------------------------------
B----------------------------------------------------
G----------8-----------4----------6------------------
D------6-----------2----------4--------------6-7-----
A--4-----------0----------2--------------4-----------
D----------------------------------------------------



Chorus

e-------------------||
B----------7777-9999||
G----------7777-9999||
D-77777777-5555-7777||  X2
A-77777777----------||
D-77777777----------||

  I'll send an S.O.S...

e------------------||
B------------------||
G------------------||
D-44444444-00000000|| X3
A-44444444-00000000||
D-44444444-00000000||

  I hope that someone...

e-------||       e------
B-------||       B------
G-6~----||       G------
D-6~--7~||   X3  D-4~---
A-4~--7~||       A-4~---
D-----7~||       D-4~---

  Message in a bottle...


End Verse

e---------------------||
B---------------------||
G-6666-2222------4444-||
D-6666-2222-4444-4444-||
A-4444-0000-4444-2222-||
D-----------4444------||

  Sending out an S.O.S....


Questions, comments, think its shit? Mail me :- meni_san@hotmail.com

Other versions of Message In A Bottle

Message in A BottleTabs

Almost there ...

Sign in to get your own page with links to favourite songs and more. You are just one click away...

Login with Facebook Login with Google