Log in

One click and you are in

Login with Facebook Login with Google

Why sign up and log in

Guitar Tabs Explorer
Machine Head guitar tabs for Jesus wept

Guitar tabs with lyrics

SONG: JESUS WEPT
BY: MACHINE HEAD
ALBUM: BURN MY EYES
TABBED BY: DANNY BLACKER (DBLACKER@TICONDEROGA.NAVY.MIL)

I DON'T REALLY KNOW WHAT YOU WOULD CALL DIFFERENT PARTS IN THIS SONG
SINCE THERE'S A chord diagramA majorA LOT SO I JUST LABELED THEM ALPHABETICALLY TO SHOW A chord diagramA majorA
CHANGE IN THE PARTS.

* = NATURAL HARMONIC
(*) = PINCH HARMONIC
. = PALM MUTE
~ = LET RING OUT
\ = SLIDE DOWN
/ = SLIDE UP
^ = BEND
<<<------------------------------------------------------------------>>>

THIS PART HAS EITHER TWO GUITARS OR A chord diagramA majorA DELAY ON IT.  I JUST SLIDE TO THE
17 AND THEN BEND THE REST OF THE WAY TO MAKE IT SMOOTHER.  I'M JUST
PUTTING IT IN HERE SO IT GIVES YOU SOMETHING TO PLAY WITH.

e--(INTRO)--------------------------------------------------------------
B---/17^--------------------/17^----------------------------------------
G-----------------------------------------------------------------------
D-------------------3~------------3~----33333333------------------------
A-------------------1~------------1~----11111111------------------------
E-----------------------------------------------------------------------
                                        ........

ON THE (A chord diagramA majorA) PART, I DIDN'T INCLUDE EVERY LITTLE VARIATION ON THE PART.
BUT YOU HAVE ALL THAT YOU NEED TO FIGURE IT OUT.

e------(A chord diagramA majorA)------------------------|-----------(A chord diagramBB)-----------------------    
B---------------------------------|-------------------------------------

G-3--------------7/9-9\7-7/10-9-3-|10/7---7-10------10/7----7-10---------
D-3-2-22-3-22-2--7/9-9\7-7/10-9-3-|10/7-8-7-10------10/7--8-7-10---------
A-1-2-22-3-22-2--5/7-7\5-5/8--7-1-|-8/5-8-5-8--------8/5--8-5-8----------
E---0-00-1-00-0-------------------|----060-0--000000-----060-0--0-3^-0-3^
      ..   ..                          . . .  ......     . . .  .    .

e-----(A chord diagramC majorC)-----------|--(NOT QUITE SURE ON THIS PART)--------------------    
B-------------------|---------------------------------------------------
G-------------------|---------------------------------------------------
D-2-4-6-3-2-3-6-3-2-|--------5------------------------------------------
A-2-4-6-3-2-3-6-3-2-|------5---6-5--------------------------------------
E-0-1-4-1-0-1-4-1-0-|--5-6---------6------------------------------------
                       .
                                  *     *    *    *     *         *
e-------(A chord diagramD MajorD)-------------------------------------------------------------    
B-----------------------------------------------------------------------
G-------9-9/11-11\9-9/12-11-------5-----5----5----5-----5---------5-----
D-4~----9-9/11-11\9-9/12-11----44---444---44---44---444---4444-44-------
A-4~----7-7/9---9\7-7/10--9--3-44---444---44---44---444---4444-44-------
E-2~---------------------------22---222---22---22---222---2222-22-------

e-----------------------------------------------------------------------
B-----------------------------------------------------------------------
G-------9/11-11\9-12-11-5-----------------------------------------------
D-4444--9/11-11\9-12-11-5-----------------------------------------------
A-4444--7/9---9\7-10--9-3-----------------------------------------------
E-2222------------------------------------------------------------------


                                  (*)
e----(A chord diagramE MajorE)----|-------------------|---------------------------------------
B-----------|-------------------|---------------------------------------
G-----------|-------------------|---------------------------------------
D-4---2-4-3-|-2-4-3-2-4-3-2-----|--5^-----------------------------------
A-4---2-4-3-|-2-4-3-2-4-3-2-----|---------------------------------------
E-2---0-2-1-|-0-2-1-0-2-1-0-1~--|---------------------------------------
              . . . . . . .


e----(A chord diagramFF)---------------|------------------------------------------------   
B----------------------|------------------------------------------------
G------3-------3-------|------------------------------------------------
D--4-5-3-5-4-5-3-5-4---|-------7----------------------------------------
A--4-5-1-5-4-5-1-5-4---|-----7---8-7------------------------------------
E--2-3---3-2-3---3-2---|-7-8---------8----------------------------------
                         .

Almost there ...

Sign in to get your own page with links to favourite songs and more. You are just one click away...

Login with Facebook Login with Google