Log in

One click and you are in

Login with Facebook Login with Google

Why sign up and log in

Guitar Tabs Explorer
Machine Head guitar tabs for I defy

Guitar tabs

"I defy" by Machine head.
from the album "The burning red"
Machine head is realising the new "supercharger" album. I'm very excited.
If you're into this kind of music check out MuDvAyNe "LD.50".

Tuned down to A chord diagramBB (H).


riff 1  Dist.     Wha.
b -------------|------|
g -------------|------|
d -------------|------|
a --------7--7-|-7--7-|
e --6--6--5--5-|------|
A chord diagramBB --4--4-------|------|


riff 2  Distorsion
b --------------------------------------------------------|
g --------------------------------------------------------|
d --------------------------------------------------------|
a ----------------------------6-6-6-----------------------|
e ----------------------------------5-5-5-5---------------|
A chord diagramE MajorE --4-4-2-4-2-4-4-4-2-4-4-4-----------------5/-7-7--------|


riff 3  Heavy reverb or sustain (I don't really know)
b ------17~-16~-------17~-16~-------|
g --9~-----------12~----------------|
d ----------------------------------|
a ----------------------------------|
e ----------------------------------|
A chord diagramBB ----------------------------------|

riff 4  Distorsion
b --------------------------------------------|
g --------------------------------------------|
d --13-12-13-14-13--13-12-13-14-13--14-13-12--|
a --------------------------------------------|
e --------------------------------------------|
A chord diagramBB --------------------------------------------|


riff 5  Distorsion
b -------------------------------|
g -------------------------------|
d -------------------------------|
a -------------------------------|
e -------------------------------|
A chord diagramBB --4-3-4-5-4--4-3-4-5-4--5-4-3--|


The song:


intro.
4x riff 1
4x riff 2
1x riff 1


verse.
4x riff 3
2x riff 4 (play it over riff 3 after 2x)
2x riff 2


chorus.
4x riff 2


verse
4x riff 3
2x riff 4 (play it over riff 3 after 2x)
2x riff 2


chorus.
4x riff 1

stick.
12x riff 5


chorus and outro.
8x riff 1

Almost there ...

Sign in to get your own page with links to favourite songs and more. You are just one click away...

Login with Facebook Login with Google