Log in

One click and you are in

Login with Facebook Login with Google

Why sign up and log in

Guitar Tabs Explorer
Machine Head bass tabs for I defy

Bass tabs

Machine Head: I Defy

Chorus:
|--------------------------|
|--------------------------|
|----------3~--3~----------|
|-4~--4~-----------5-5-5-5-|
Pre-chorus:
|-----------------------------------------------------------------|
|-----------------------------------------------------------------|
|---------------------------------------3-3-3-3-3-3---------------|
|-4-4-2-4-4-2-4-4-2-4-4-2-4-4-2-2-4-4-4-------------7-7-7-7-7-7-7-|

Repeat: Chorus 1x


Verse:
|-----------------------------------------------------------------|
|-----------------------------------------------------------------|
|---------------------------------3-3-3-3-3-3-3-3-3---------------|4x
|-4-4-2-4-4-2-4-4-2-4-4-2-4-4-2-2-------------------7-7-7-7-7-7-7-|

Repeat: Pre-Chorus 2x
        Chorus 4x
        Verse 5x
        Pre-Chorus


Chorus 2:
|--------------------------|
|--------------------------|
|----------3~--3~----------|
|-4~--4~-----------5-5-5-5-|

|--------------------------|
|--------------------------|
|--------------------------|
|-5~-----------------------|


Bridge:
|---------------------------------|
|---------------------------------|
|---------------------------------|11x
|-4-3-2-5-4~--4-3-2-5-4~--4-3-2-0-|

|----------------------------------------------------|
|----------------------------------------------------|
|----------------------------------------------------|
|-5--4--5--4--0-0-0-0-5~-----2---1---0---3---2---1---|

Repeat: Chorus 8x

Almost there ...

Sign in to get your own page with links to favourite songs and more. You are just one click away...

Login with Facebook Login with Google