Log in

One click and you are in

Login with Facebook Login with Google

Why sign up and log in

Guitar Tabs Explorer
Machine Head guitar tabs for I am hell sonata in c

Guitar tabs with lyrics

Album: Unto the Locust (2011)
Tabbed by Derek Mayfield


Tuning, low to high: C#, G#, C#, F#, A#, A chord diagramD#D#
Intro: I A chord diagramA minorAm Hell
1A (Main)
|---------------------------------------------|
|---------------------------------------------|
|---------------------------------------------|
|---------------------------------------------|
|-1-0-0-0---0------1-0-0-0---0------1-0-0-0---|
|-1-0-0-0---0------1-0-0-0---0------1-0-0-0---|

1B (Every fourth measure)
|---------------------------------------------|
|---------------------------------------------|
|---------------------------------------------|
|---------------------------------------------|
|-1-0-0-0---0------1-0-0-0-----6-3--6-3--6-3--|
|-1-0-0-0---0------1-0-0-0--------------------|

1C (Every sixth measure)
|---------------------------------------------|
|---------------------------------------------|
|---------------------------------------------|
|---------------------------------------------|
|-1-0-0-0---0------1-0-0-0----0------1-0-0--6-|
|-1-0-0-0---0------1-0-0-0----0------1-0-0----|


Guitar 2 (Comes in sixteenth measure)
|---------------------------------------------|
|-----7----7----7----7----6----6----6----6----|
|--8----8----8----8----8----8----8----8-------|
|---------------------------------------------|
|---------------------------------------------|
|---------------------------------------------|

|---------------------------------------------|
|-----9----9----9----9----7----7----7----7----|
|--8----8----8----8----8----8----8----8-------|
|---------------------------------------------|
|---------------------------------------------|
|---------------------------------------------|

|-----7----7----7----7----6----6----6----6----|
|---------------------------------------------|
|--8----8----8----8----8----8----8----8-------|
|---------------------------------------------|
|---------------------------------------------|
|---------------------------------------------|

|-----9----9----9----9----7----7----7----7----|
|---------------------------------------------|
|--8----8----8----8----8----8----8----8-------|
|---------------------------------------------|
|---------------------------------------------|
|---------------------------------------------|

|-----7----6----------------------------------|
|---------------9----7----6----7--------------|
|--8----8----8----8----8----8-----------------|
|---------------------------------------------|
|---------------------------------------------|
|---------------------------------------------|

Ashes to the Sky
2A
|--------------------------------------------|
|--------------------------------------------|
|--------------------------------------------|
|----------------8650------------------------|
|-----------8650------4-1-1-1-1-1-4-1-1-1-1-1|
|-6530-8650-----------4-1-1-1-1-1-4-1-1-1-1-1|

2B
|----------------------------------------------------------------|
|----------------------------------------------------------------|
|----------------------------------------------------------------|
|--------------------------------------------------------7-5-----|
|-------6-5-0--8-6-5---5-6-5-0-5--------6-5-0--8-6-5---5-----8-6-|
|-0-5-6--------------6------------0-5-6--------------6-----------|

2C
|-----------------------------------------------------------|
|-----------------------------------------------------------|
|-----------------------------------------------------------|
|-----------------------------------------------------------|
|-------6-5-0--8-6-5---5-6-5-0-5----4-1-1-1-1-1-4-1-1-1-1-1-|
|-0-5-6--------------6--------------4-1-1-1-1-1-4-1-1-1-1-1-|

2B
2C
2B
2C

2D
|--------------------------|
|--------------------------|
|--------------------------|
|11-8-8-8-8-8-11-8-8-8-8-8-|
|-9-6-6-6-6-6--9-6-6-6-6-6-|
|--------------------------|


Verse 2x
|-----------------|---------------|-----------------|---------------------|
|-----------------|---------------|-----------------|---------------------|
|-----------------|---------------|-----------------|---------------------|
|-----------------|---------------|-----------------|----------------8650-|
|-0------0--3-1-3-|-0-----3-1-3-43|-0------0--3-1-3-|-----------8650------|
|-0--000-0--3-1-3-|-0--00-3-1-3-43|-0--000-0--3-1-3-|-6530-8650-----------|


Pre-Chorus
|---------------------------------------------------------|
|---------------------------------------------------------|
|---------------------------------------------------------|
|---------------------------------------------------------|
|-4------3---5---4------3--5---4------3---5---4------3--5-|
|-7------6---8---7------6--8---7------6---8---7------6--8-|


Chorus
 I        am       hell   to       thee
|---------------------------------|---------------------------------|
|---------------------------------|---------------------------------|
|---------------------------------|---------------------------------|
|-5-5-5-5-8-8-8-8-7-7-7-7-5-5-5-5-|-4-4-4-4-5-5-5-5-7-7-7-7---------|
|---------------------------------|-------------------------5-5-5-5-|
|---------------------------------|---------------------------------|

 Down     here     all    shall     suffer  with    me
|---------------------------------|---------------------------------|
|---------------------------------|---------------------------------|
|---------7-7-7-7-5-5-5-5---------|---------5-5-5-5-----------------|
|-------------------------8-8-8-8-|-8-8-8-8---------7-7-7-7-5-5-5-5-|
|-6-6-6-6-------------------------|---------------------------------|
|---------------------------------|---------------------------------|

 Die                 puri-                 fied            rise        the
|----------------------------------------|-------------------------------------|
|----------------------------------------|-------------------------------------|
|12-12-12-12-8-8-8-8-7-7-7-7-------------|-----------------------------7-7-7-7-|
|----------------------------10-10-10-10-|-7-7-7-7-8-8-8-8-10-10-10-10---------|
|----------------------------------------|-------------------------------------|
|----------------------------------------|-------------------------------------|

 ashes    to      the               sky
|---------------------------------|---------------------------------|
|---------------------------------|---------------------------------|
|---------7-7-7-7-5-5-5-5---------|---------------------------------|
|-8-8-8-8-----------------7-7-7-7-|-8-8-8-8-7-7-7-7-5-5-5-5-4-4-4-4-|
|---------------------------------|---------------------------------|
|---------------------------------|---------------------------------|


Verse 2x

Pre-Chorus

Chorus


Bridge (So burn)
|---------------------|--------------12---------------12------|
|--6b---8b---9b---11b-|-12b-15b-13b-----13-12-13-15b-----13-12|
|---------------------|---------------------------------------|
|---------------------|---------------------------------------|
|---------------------|---------------------------------------|
|---------------------|---------------------------------------|

-12---------------------12/13-15b-15b-15b-|
----13-12-13-12b--13/15-------------------|
------------------------------------------|
------------------------------------------|
------------------------------------------|
------------------------------------------|


2A
2B
2C
2B
2C
2D

Solos (I can't help you here, sorry!)


Pre-Chorus


Chorus A chord diagramBB
 I        am       hell   to       thee
|---------------------------------|---------------------------------|
|---------------------------------|---------------------------------|
|---------------------------------|---------------------------------|
|-5-5-5-5-8-8-8-8-7-7-7-7-5-5-5-5-|-4-4-4-4-5-5-5-5-7-7-7-7---------|
|---------------------------------|-------------------------5-5-5-5-|
|---------------------------------|---------------------------------|

 Down     here     all    shall     suffer  with    me
|---------------------------------|---------------------------------|
|---------------------------------|---------------------------------|
|---------7-7-7-7-5-5-5-5---------|---------5-5-5-5-----------------|
|-------------------------8-8-8-8-|-8-8-8-8---------7-7-7-7-5-5-5-5-|
|-6-6-6-6-------------------------|---------------------------------|
|---------------------------------|---------------------------------|

 Die purified, rise the ashes of your immolation
|-----------------------------------------------|
|-----------------------------------------------|
|-8-8-8-8-8-8-8-8-8-8-8-8-8-8-8-8-8-8-8-8-8-8-8-|
|-----------------------------------------------|
|-6-6-6-6-6-6-6-6-6-6-6-6-6-6-6-6-6-6-6-6-6-6-6-|
|-----------------------------------------------|

Breakdown 8x
|--------------------------------|
|--------------------------------|
|--------------------------------|
|--------------------------------|
|-1-0---1-0-0-0--1-0--4b-4b-4b-4b|
|-1-0---1-0-0-0--1-0--4b-4b-4b-4b|

Now is the acoustic part, it's simply the chorus twice, without tremolo picking it.


Chorus 2x


Bridge 3x




There you go, hope you appreciate my tab :), good luck playing it, have fun! Feel free

Almost there ...

Sign in to get your own page with links to favourite songs and more. You are just one click away...

Login with Facebook Login with Google