Log in

One click and you are in

Login with Facebook Login with Google

Why sign up and log in

Guitar Tabs Explorer
Machine Head guitar tabs for Game over

Guitar tabs with lyrics

Band:   Machine Head
Album:  Bloodstone And Diamonds (2014)

Tuning: A chord diagramC#C# Standard (C#, F#, B, E, G#, A chord diagramC#C#)

Machine Head don't play in A chord diagramC#C# Standard precisely... They are tuned to
A chord diagramC#C# Standard but then tuned up 40 cents sharper.
On a Korg tuner it would look something like this

Tuner:
50                            x  50#
|--|--|--|--|-[-C#-]-|--|--|--|--|

The 'x' indicates where your tuning should be

Also comment, correct, and please, please rate!!!


Guitar 1:        Robb Flynn
Guitar 2:        Phil Demmel

Tabbing Legend
Hammer on:          h
Pull off:           p
Slide up:           /
Slide down:         \
Natural Harmonic:   NH
Pinch Harmonic:     PH
Bend:               BU( )
Whammy Bar Rise:    WBR
Whammy Bar Lower:   WBL
Whammy Bar Vibrato: WB~~~
Tremelo Pick:       Tr---
Tapped note:        T
Trill:              tr (rapid hammer on s and pull off s)
Muted note:         M
Palm Mute:          PM---
Killswitch:         K (can use bridge selector)
Quick bend:         ^
Pick Slide:         X\\\
Whammy Pedal:       +

____________________________________________________________________________

Intro
Guitar 1
||-------------------------------------------------||
|o-------------------------------------------------o|
||-------------------------------------------------||
||-9-----------9-----------9-----------9-----------||
|o-7-----------7-----------7-----------7-----------o|
||---0-0-0-0-0---0-0-0-0-0---0-0-0-0-0---0-0-0-0-0-||

____________________________________________________________________________


Intro Verse 1
Guitar 1
     PM-------   PM-------   PM-------   PM-------
||-------------------------------------------------|
|o-------------------------------------------------|
||-------------------------------------------------|
||-9-----------9-----------9-----------9-----------|
|o-7-----------7-----------7-----------7-----------|
||---0-0-0-0-0---0-0-0-0-0---0-0-0-0-0---0-0-0-0-0-|

    PM-------   PM-------   PM-------   PM-------
|-------------------------------------------------|
|-------------------------------------------------|
|-------------------------------------------------|
|-9-----------9-----------9-----------9-----------|
|-7-----------7-----------7-----------7-----------|
|---0-0-0-0-0---0-0-0-0-0---0-0-0-0-0---0-0-0-0-0-|

    PM   PM---   PM   PM---   PM   PM---   PM   PM---
|-----------------------------------------------------|
|-----------------------------------------------------|
|-----------------------------------------------------|
|-7---10-------7---10-------7---10-------7---10-------|
|-7----7-------7----7-------7----7-------7----7-------|
|---0----0-0-0---0----0-0-0---0----0-0-0---0----0-0-0-|

    PM-------   PM-------   PM-------   PM-------
|-------------------------------------------------||
|-------------------------------------------------o|
|-------------------------------------------------||
|-9-----------9-----------9-----------9-----------||
|-7-----------7-----------7-----------7-----------o|
|---0-0-0-0-0---0-0-0-0-0---0-0-0-0-0---0-0-0-0-0-||


____________________________________________________________________________


Intro Verse 2
Both guitars
|---------------------------------------------------------|
|---------------------------------------------------------|
|---------------------------------------------------------|
|---------------------------------------------------------|
|-10-7---------10-7---------10-7---------10-7-------------|
|------8~~~~~~------7~~~~~~------8~~~~~~------5---7---8---|

Guitar 1
||-------------------------------------------------||
|o-------------------------------------------------o|
||-------------------------------------------------||
||-9-----------9-----------9-----------9-----------||
|o-7-----------7-----------7-----------7-----------o|
||---0-0-0-0-0---0-0-0-0-0---0-0-0-0-0---0-0-0-0-0-||
|
|Guitar 2
|-------------------------------------------------|
|-------------------------------------------------|
|-------------------------------------------------|
|-------------------------------------------------|
|-2-----------------------------------------------|
|-0-----------------------------------------------|

____________________________________________________________________________


Repeat Intro Verse 1

____________________________________________________________________________


Intro Verse 2 Variation
Both guitars
|---------------------------------------------------------|
|---------------------------------------------------------|
|---------------------------------------------------------|
|---------------------------------------------------------|
|-10-7---------10-7---------10-7---------10-7-------------|
|------8~~~~~~------7~~~~~~------8~~~~~~------5---7---8---|

|-------------------------------------------------|
|-------------------------------------------------|
|-------------------------------------------------|
|-------------------------------------------------|
|-2-------------------------------------X\\\\\\\\-|
|-0-------------------------------------X\\\\\\\\-|

____________________________________________________________________________


Verse 1
Both guitars
     PM----  PM----  PM----  PM----  PM----  PM----  PM----
||-----------------------------------------------------------------||
|o-----------------------------------------------------------------o|
||-----------------------------------------------------------------|| x3
||-----------------------------------------------------------------||
|o-8-------8-------8-------8-------8-------8-------8-------5/7-7/8-o|
||-6-0---0-6-0---0-6-0---0-6-0---0-6-0---0-6-0---0-6-0---0-3/5-5/6-||

Guitar 1
    PM----  PM----  PM----  PM
|-----------------------------------------------------------------|
|-----------------------------------------------------------------|
|-----------------------------------------------------------------|
|-----------------------------------------------------------------|
|-8-------8-------8-------8-----X\\\\\\\\\\\\\\\\\\\\\\\\\\\\\\\\-|
|-6-0---0-6-0---0-6-0---0-6-0---X\\\\\\\\\\\\\\\\\\\\\\\\\\\\\\\\-|
|
|Guitar 2
|   PM----  PM----  PM----  PM----  PM----  PM----  PM----
|-----------------------------------------------------------------|
|-----------------------------------------------------------------|
|-----------------------------------------------------------------|
|-----------------------------------------------------------------|
|-8-------8-------8-------8-------8-------8-------8-----X\\\\\\\\-|
|-6-0---0-6-0---0-6-0---0-6-0---0-6-0---0-6-0---0-6-0---X\\\\\\\\-|

____________________________________________________________________________


Chorus
Both guitars
|-----------------------------------------------------------------|
|-----------------------------------------------------------------|
|-----------------------------------------------------------------|
|-5-5-5-5-5-5-5-5-5-5-5-5-5-5-5-5-7/9-9-9-7/9-9-9-7/9-9-9-7/9-9-9-|
|-3-3-3-3-3-3-3-3-3-3-3-3-3-3-3-3-5/7-7-7-5/7-7-7-5/7-7-7-5/7-7-7-|
|-----------------------------------------------------------------|

|---------------------------------------------------------------------|
|---------------------------------------------------------------------|
|---------------------------------7-7-7-7-9-9-9-9-11---12---14---16---|
|---------------------------------------------------------------------|
|-7-7-7-7-7-7-7-7-7-7-7-7-7-7-7-7-5-5-5-5-7-7-7-7--9---10---12---14---|
|-5-5-5-5-5-5-5-5-5-5-5-5-5-5-5-5-------------------------------------|

|-----------------------------------------------------------------|
|-----------------------------------------------------------------|
|-----------------------------------------------------------------|
|-5-5-5-5-5-5-5-5-5-5-5-5-5-5-5-5-7/9-9-9-7/9-9-9-7/9-9-9-7/9-9-9-|
|-3-3-3-3-3-3-3-3-3-3-3-3-3-3-3-3-5/7-7-7-5/7-7-7-5/7-7-7-5/7-7-7-|
|-----------------------------------------------------------------|

|-----------------------------------------------------------------|
|-----------------------------------------------------------------|
|-------------------------------------------------8-8-8-8-8-8-8-8-|
|-----------------------------------------------------------------|
|-7-7-7-7-7-7-7-7-7-7-7-7-7-7-7-7-8-8-8-8-8-8-8-8-6-6-6-6-6-6-6-6-|
|-5-5-5-5-5-5-5-5-5-5-5-5-5-5-5-5-6-6-6-6-6-6-6-6-----------------|

____________________________________________________________________________


Repeat Verse 1

Repeat Chorus

____________________________________________________________________________


Harmony
Guitar 1
||----------------------------------------------------------------||
|o----------------------------------------------------------------o|
||-------------------------------------------------12----12----12-|| x4
||-14p12---12p9---14p12---12p9---14p12---12p9---16----16----16----||
|o----------------------------------------------------------------o|
||-------0------0-------0------0-------0------0-------------------||
|
|Guitar 2
||-------------------------------------------------------------------||
|o-------------------------------------------------------------------o|
||----------------------------------------------------16----16----16-|| x4
||-17p16---16p14---17p16---16p14---17p16---16p14---19----19----19----||
|o-------------------------------------------------------------------o|
||-------0-------0-------0-------0-------0-------0-------------------||

Guitar 1
||----------------------------------------------------------------||
|o----------------------------------------------------------------o|
||-------------------------------------------------12----12----12-|| x4
||-14p12---12p9---14p12---12p9---14p12---12p9---16----16----16----||
|o----------------------------------------------------------------o|
||-------0------0-------0------0-------0------0-------------------||
|
|Guitar 2
||-------------------------------------------------------------------||
|o----------------------------------------------------17----17----17-o| x4
||-17p16---16p14---17p16---16p14---17p16---16p14---19----19----19----||
||-------------------------------------------------------------------||
|o-------------------------------------------------------------------o|
||-------0-------0-------0-------0-------0-------0-------------------||

____________________________________________________________________________


Breakdown
Guitar 1
|---------|---------|---------|---------|
|---------|---------|---------|---------|
|---------|---------|---------|---------|
|---------|---------|---------|---------|
|---------|---------|---------|---------|
|-0-------|-1-------|-3---1---|-0-------|
|
|Guitar 2
||----------------------------------------------------15----15----15-||
|o-17p15-0-15p12-0-17p15-0-15p12-0-17p15-0-15p12-0-19----19----19----o|
||-------------------------------------------------------------------|| x4
||-------------------------------------------------------------------||
|o-------------------------------------------------------------------o|
||-------------------------------------------------------------------||
____________________________________________________________________________


Bridge
Both guitars
|------------------------------------------------------|
|------------------------------------------------------|
|-5-5-5-5-5-5-5/7-7-7-7-7-7/9-9-9-9-9-9/11-11-11-11-11-|
|------------------------------------------------------|
|-3-3-3-3-3-3-3/5-5-5-5-5-5/7-7-7-7-7-7/-9--9--9--9--9-|
|------------------------------------------------------|

|------------------------------------------------------------------|
|------------------------------------------------------------------|
|-9-9-9-9-9-9-9/11-11-11-11-11-11/12-12-12-12-12-12/14-14-14-14-14-|
|------------------------------------------------------------------|
|-7-7-7-7-7-7-7/9--9--9--9--9--9-/10-10-10-10-10-10/12-12-12-12-12-|
|------------------------------------------------------------------|

|-------------------------------------------------|
|-------------------------------------------------|
|-2-2-2-2-2-2-2/4-4-4-4-4-4/5-5-5-5-5-5/7-7-7-7-7-|
|-------------------------------------------------|
|-0-0-0-0-0-0-0h2-2-2-2-2-2/3-3-3-3-3-3/5-5-5-5-5-|
|-------------------------------------------------|

|-------------------------------------------------------------|
|-------------------------------------------------------------|
|-9-9-9-9-9-9-9-9-9-9-9-9-11-11-11-11-11-11-12-12-12-12-12-12-|
|-------------------------------------------------------------|
|-7-7-7-7-7-7-7-7-7-7-7-7--9--9--9--9--9--9-10-10-10-10-10-10-|
|-------------------------------------------------------------|

Guitar 1
|------------------------------------------------------|
|------------------------------------------------------|
|-5-5-5-5-5-5-5/7-7-7-7-7-7/9-9-9-9-9-9/11-11-11-11-11-|
|------------------------------------------------------|
|-3-3-3-3-3-3-3/5-5-5-5-5-5/7-7-7-7-7-7/-9--9--9--9--9-|
|------------------------------------------------------|
|
|Guitar 2
|-------------------------------------------------------------------|
|-------------------------------------------------------------------|
|-9-9-9-9-9-9-9/11-11-11-11-11-11/12-12-12-12-12-12/14-14-14-14-14-|
|-------------------------------------------------------------------|
|-7-7-7-7-7-7-7/-9--9--9--9--9--9/10-10-10-10-10-10/12-12-12-12-12-|
|-------------------------------------------------------------------|

Guitar 1
|------------------------------------------------------------------|
|------------------------------------------------------------------|
|-9-9-9-9-9-9-9/11-11-11-11-11-11/12-12-12-12-12-12/14-14-14-14-14-|
|------------------------------------------------------------------|
|-7-7-7-7-7-7-7/9--9--9--9--9--9-/10-10-10-10-10-10/12-12-12-12-12-|
|------------------------------------------------------------------|
|
|Guitar 2
|-------------------------------------------------------------------------|
|-------------------------------------------------------------------------|
|-12-12-12-12-12-12-12/14-14-14-14-14-14/16-16-16-16-16-16/19-19-19-19-19-|
|-------------------------------------------------------------------------|
|-10-10-10-10-10-10-10/12-12-12-12-12-12/14-14-14-14-14-14/17-17-17-17-17-|
|-------------------------------------------------------------------------|

Guitar 1
|-------------------------------------------------|
|-------------------------------------------------|
|-2-2-2-2-2-2-2/4-4-4-4-4-4/5-5-5-5-5-5/7-7-7-7-7-|
|-------------------------------------------------|
|-0-0-0-0-0-0-0h2-2-2-2-2-2/3-3-3-3-3-3/5-5-5-5-5-|
|-------------------------------------------------|
|
|Guitar 2
|-------------------------------------------------------------------------|
|-13-13-13-13-13-13-13/15-15-15-15-15-15/17-17-17-17-17-17/20-20-20-20-20-|
|-------------------------------------------------------------------------|
|-10-10-10-10-10-10-10/12-12-12-12-12-12/14-14-14-14-14-14/17-17-17-17-17-|
|-------------------------------------------------------------------------|
|-------------------------------------------------------------------------|

Both guitars
|-------------------------------------------------|
|-------------------------------------------------|
|-3-3-3-3-3-3-3-3-3-3-3-3-8-8-8-8-8-8-8-8-8-8-8-8-|
|-------------------------------------------------|
|-1-1-1-1-1-1-1-1-1-1-1-1-6-6-6-6-6-6-6-6-6-6-6-6-|
|-------------------------------------------------|
____________________________________________________________________________


Repeat Intro

Repeat Intro Verse 1 x2

Repeat Intro Verse 2 Variation

Repeat Verse 1

Repeat Chorus

____________________________________________________________________________


Outro
Both guitars
     PM----  PM----  PM----  PM----  PM----  PM----  PM----
||-----------------------------------------------------------------||
|o-----------------------------------------------------------------o|
||-----------------------------------------------------------------|| x3
||-----------------------------------------------------------------||
|o-8-------8-------8-------8-------8-------8-------8-------5/7-7/8-o|
||-6-0---0-6-0---0-6-0---0-6-0---0-6-0---0-6-0---0-6-0---0-3/5-5/6-||

Unmuted
|-----------------------------------------------------------------|
|-----------------------------------------------------------------|
|-----------------------------------------------------------------|
|-----------------------------------------------------------------|
|-8-------8-------8-------8-------8-------8-------8-------5/7-7/8-|
|-6-0---0-6-0---0-6-0---0-6-0---0-6-0---0-6-0---0-6-0---0-3/5-5/6-|

|-----------------|
|-----------------|
|-----------------|
|-2---------------|
|-2---------------|
|-0---------------|

____________________________________________________________________________

That's all guys please rate :)

Almost there ...

Sign in to get your own page with links to favourite songs and more. You are just one click away...

Login with Facebook Login with Google