Log in

One click and you are in

Login with Facebook Login with Google

Why sign up and log in

Guitar Tabs Explorer
Machine Head bass tabs for Game over

Bass tabs

Machine Head: Game Over                 Drop C# Tuning
Guitar Intro

Intro
|-----------------------------------------------------------|
|-----------------------------------------------------------|
|-8-5------8-5------8-5------8-5----------------------------|
|-----8~-------7~-------8~-------5--7--8--0~----------------|

Guitar Intro Again & Repeat Intro
Verse
|-----------------------------------------------------------------|
|-----------------------------------------------------------------|
|-----------------------------------------------------------------|6x
|-6-0~--0-6-0~--0-6-0~--0-6-0~--0-6-0~--0-6-0~--0-6-0~--0-3-3-3-3-|


Chorus
|-----------------------------------------------------------------|
|-----------------------------------------------------------------|
|-1-1-1-1-1-1-1-1-1-1-1-1-1-1-3-3-3h5-----3h5-----3h5-----3h5-----|
|-------------------------------------0~------0~------0~------0~--|

|-----------------------------------------------------------------|
|-----------------------------------------------------------------|
|---------------------------------3-3-3-3-3-3-3-3-3-3-3-3-3-3-3-3-|
|-5-5-5-5-5-5-5-5-5-5-5-5-5-5-5-5---------------------------------|

|-----------------------------------------------------------------|
|-----------------------------------------------------------------|
|-1-1-1-1-1-1-1-1-1-1-1-1-1-1-3-3-3h5-----3h5-----3h5-----3h5-----|
|-------------------------------------0~------0~------0~------0~--|

|-----------------------------------------------------------------|
|-----------------------------------------------------------------|
|-------------------------------------------------4-4-4-4-4-4-4-4-|
|-5-5-5-5-5-5-5-5-5-5-5-5-5-5-5-5-6-6-6-6-6-6-6-6-----------------|

Repeat: Verse 4x
        Chorus

Bridge
|-------------------------------------------------------------|
|-------------------------------------------------------------|
|-------------------------------------------------------------|
|-0~-----0~-----0~-----0~-0~-0~-5~-----5~-----5~-----5~-5~-5~-|

|-------------------------------------------------------------|
|-------------------------------------------------------------|
|-1~-----1~---------------------------------------------------|
|---------------3~-----3~-3~-3~-0~-----0~-----0~-----0~-0~-0~-|

|-------------------------------------------------------------|
|-0~--0~--0-0~---0~--0~--0-0~---5~--5~--5-5~---5~--5~--5-5~---|
|-------------------------------------------------------------|
|-------------------------------------------------------------|

|-------------------------------------------------------------|
|-8~--8~--8-8~---3~--3~--3-3~---0~--0~--0-0~---0~--0~-0-0-0-0-|
|-------------------------------------------------------------|
|-------------------------------------------------------------|

Breakdown
|----------------------------------------------------------------------|
|----------------------------------------------------------------------|
|---------------------------------------------------------------3-3-5\-|
|-0~------------1~------------3~------1~------0~--------------5--------|

|---------------------------------------------------------------------|
|-----------------------------3~------5~------7~----------------------|
|---------------------------------------------------------------------|
|-0~------------1~----------------------------------------------------|

Interlude
|------------------------------------------------------------------|
|------------------------------------------------------------------|
|-1~-1~-1-1-1-1~--1~-1~-1-1-1-1~-----------------------------------|
|---------------------------------0---0---0--0--0--0---0---0--0--0-|

|------------------------------------------------------------------|
|------------------------------------------------------------------|
|---------------------------------3~-3~-3-3-3-3-333333333333333333-|
|-5~-5~-5-5-5-5-5-5-5-5-5-5-7-7-7----------------------------------|

|------------------------------------------------------------------|
|------------------------------------------------------------------|
|-1~-1~-1-1-1-1-111111111111111111---------------------------------|
|---------------------------------0~-0~-0-0-0-0~-0~---0~---3--5--7-|

|---------------------------------------------------------------------|
|---------------------------------------------------------------------|
|-----------------------------------------------444444444444444444----|
|-5~-5~-5-5-5-5-5555555555555555556~666666666666-------------------0~-|

Rest

Repeat: Intro
        Verse 2x
        Chorus
        Verse 4x

End With:
|-----------------|
|-----------------|
|-----------------|
|-0~--------------|

Almost there ...

Sign in to get your own page with links to favourite songs and more. You are just one click away...

Login with Facebook Login with Google