Log in

One click and you are in

Login with Facebook Login with Google

Why sign up and log in

Guitar Tabs Explorer
Machine Head guitar tabs for From this day

Guitar tabs

Artist : Machine Head
Title  : From This Day
Album  : Burning Red
Year   : 1999

Tabbed by Emmanuel Maltete
vaderjacob@yahoo.com
Intro 0:00

     Hold the guitar close to the amp for feedback
    /
e|-16------|
B|---------|
G|---------|
D|---------|
A|------7--|
E|------7--|


Riff 1 0:04
e|-----------------|------------------|
B|-----------------|------------------|
G|-----------------|------------------|
D|-10-9----9-7-----|-10-9----9-7~~~---|
A|------10-----8-9-|------10--------9-|
E|---------------7-|----------------7-|

e|-----------------|----------------------|
B|-----------------|----------------------|
G|-----------------|----------10b12b10----|
D|-10-9----9-7-----|-10-9---9-------------|
A|------10-----8-9-|------8------------9--|
E|---------------7-|-------------------7--|


Riff 2
e|-----------------------------------------
B|-----------------------------------------
G|-----------------------------------------
D|-----------------------------------------
A|-9-9---9-9-9---9-9-9---9-12-14-14-14-----
E|-7-7---7-7-7---7-7-7---7-10-12-12-12-----

e|--------------------------------------------
B|--------------------------------------------
G|--------------------------------------------
D|---------------------------9-7--------------
A|-9-9---9-9-9---9-9-9---9-------9-7-9-7------
E|-7-7---7-7-7---7-7-7---7-7-------------10-7-
                            ? ? ? ? ? ? ? ? ?


Riff 3
e|-----------------------------------------
B|-----------------------------------------
G|----------------------------------------- you should release
D|----------------------------------------- the presure on your
A|-9---r-9-r-9-r--------------------------- vingers to mute
E|-7---r-7-r-7-r--------------------------- the string
       \_r = release________________________/


Chorus
e|---------------------------------------
B|---------------------------------------
G|---------------------------------------
D|---------------------------------------
A|-9-9---9-9-9---9-9-9---9/14-14-14-14---
E|-7-7---7-7-7---7-7-7---7/12-12-12-12---

e|-----------------------------------------------
B|-----------------------------------------------
G|-----------------------------------------------
D|-----------------------------------------------
A|-12-12---12-12-12---12-12-12---12\14-14-14-14--
E|-10-10---10-10-10---10-10-10---10\12-12-12-12--


e|---------------------------------
B|---------------------------------
G|---------------------------------
D|---------------------------------
A|-7-7---7-7-7---7-7-7---7-7-7---7-
E|-5-5---5-5-5---5-5-5---5-5-5---5-


e|-----------------------------------------
B|-----------------------------------------
G|-----------------------------------------
D|-----------------------------------------
A|-12-12---12-12-12---12-14-14---14-14-14--
E|-10-10---10-10-10---10-12-12---12-12-12--


Riff 4 2:18
e|-------------------------|-------------------
B|-------------------------|-------------------
G|-------------------------|-------------------
D|-------------------------|----/10---10----10-
A|-2---3-5-2---3-5-2---3-5-|-2--/8--2-8--2--8--
E|-0---1-3-0---1-3-0---1-3-|-0------0----0-----

e|-------------------------|----------------
B|-------------------------|----------------
G|-------------------------|----------------
D|-------------------------|-----10-9-7-----
A|-2---3-5-2---3-5-2---3-5-|-2-3-8--7-5-----
E|-0---1-3-0---1-3-0---1-3-|-0-1------------

End
e|-----------------------------------------
B|-----------------------------------------
G|-----------------------------------------
D|-----------------------------------------
A|-12--10-9----10-7--9---------------------
E|-10--8--7----8--5--7---------------------

Almost there ...

Sign in to get your own page with links to favourite songs and more. You are just one click away...

Login with Facebook Login with Google