Log in

One click and you are in

Login with Facebook Login with Google

Why sign up and log in

Guitar Tabs Explorer
Machine Head guitar tabs for Farewell to arms

Guitar tabs

Drop A chord diagramB#B# tuning

I made the timing off cause i don't know how you do it w/ tabs so just figure out the
yourself.
intro:
|----------------------------------------------------|
|----------------------------------------------------|
|----14------------------------14--------------------|
|--------15--14--15----------------15--14--15--------|
|13------------------------12------------------------|
|----------------------------------------------------|


intro (cont.)
|------------------------------------------------------|
|------------------------------------------------------|
|----14--------------------------------------12--------|
|--------15--14--15------------------------------------|
|13------------------------12--------------------------|
|------------------------------------------------------|


riff A chord diagramA majorA
|----------------------------------------------------------------|
|----------------------------------------------------------------|
|----------------------------------------------------------------|
|----------------------------------------------------------------|
|--5-----5-----5---5-----5-----5---5-----5-----5---5-----5-----5-|
|0---7-0---7-0---0---7-0---7-0---0---7-0---7-0---6---6-5---5-3---|


|--------------------------------------------------------------------|
|--------------------------------------------------------------------|
|--------------------------------------------------------------------|
|--------------------------------------------------------------------|
|--5-----5-----5---5-----5-----5---5-----5-----5---5-----5-----5---5-|
|0---7-0---7-0---0---7-0---7-0---0---7-0---7-0---6---6-5---5-3---1---|x2

riff A chord diagramBB
|--------------------------------------------------------------------|
|------------------------------------------------------------------5-|
|--------------------------------------------------------------5-----|
|7-----7-----7---7-----7-----8---5-7-----7-----7---7-----7-----------|
|--5-5---5-5---5---5-5---5-5---5-----5-5---5-5---5---5-5---5-5---5---|
|--------------------------------------------------------------------|x2

|------------------------------------|
|------------------------------------|
|------------------------------------|
|7-----7-----7---7-----7-----8---5-7-|
|--5-5---5-5---5---5-5---5-5---5-----|
|------------------------------------|


riff B2
|----------------|
|----------------|
|----------------|
|7-----7-----7---|
|--5-5---5-5---5-|
|----------------|x7


riff A chord diagramA majorA

riff A chord diagramBB

riff B2

i will finish in the next week.

Almost there ...

Sign in to get your own page with links to favourite songs and more. You are just one click away...

Login with Facebook Login with Google