GuitarTabsExplorer icon
GuitarTabsExplorer icon

Log in

Songbook

  • Log in to add and see bookmarks

Last visited songs

  • No songs visited yet...
Davidian by Machine Head

Tabs

"Davidian" - MACHINE HEAD
 From the Album "Burn my Eyes"
 by [email protected]


    Begin         Most of the Song
E-|-------------------|-----------------------------|
B-|-------------------|-----------------------------|
G-|-------------------|-----------------------------|
D-|-5-6-5-5--6--9--8--|---5-5--5-5--5-5-5-----------|
A-|-3-4-3-3--4--7--6--|---3-3--3-3--3-3-3--4-3-1-3--|
D-|-------------------|--------------------4-3-1-3--|


E-|--------------------------------|
B-|--------------------------------|
G-|--------6-5-3--9---9--9---------|
D-|-5-6-5--4-3-2--7---7--7--5--6---|
A-|-3-4-3-------------------3--4---|
D-|--------------------------------|

Outro:

E-|-----------------|----------|----------------------------------------------|
B-|-------3x--------|----------|----------------------------------------------|
G-|-----------------|----------|----REPEAT------------------------------------|
D-|-4-5-5-5-2-5-5-5-|--8-9-6-7-|----------------------------------------------|
A-|-2/3-3-3-4\3-3-3-|--6-7-4-5-|----------------------------------------------|
E-|-----------------|----------|----------------------------------------------|
That`s the way I play it, and it sounds alright for me!
But if you see a mistake tell me.

Sam Razialruh


--


 "Davidian" - MACHINE HEAD
 From the Album "Burn my Eyes"

By Andy Thompson (e-mail : [email protected])

Note - Timing is not perfect on this (no shit!), but that wasn't my intention.
  This tab is _not_ perfect and I am still working on the rest of the song, but
  it sounds *fairly* close to me :-) If you can come up with something better,
  please send it to me at my e-mail address at Uni.

Intro :
=======

  Gtr 1 (Robb)     Repeat x2
D-|-------------------||-------------------------|-------------------------||
A-|-------------------||*------------------------|------------------------*||
F-|-------------------||-------------------------|-------------------------||
C-|-------------------||-------------------------|-------------------------||
G-|-5--------5-5------||*6/8/9-5--------5-5------|-6/9\8-5---------5-5----*||
D-|-3--------3-3------||-4/6/7-3--------3-3------|-4/7\6-3---------3-3-----||
 |          ||             |             ||
 |Gtr 2 (Logan)   ||             |             ||
D-|-------------------||-------------------------|-------------------------||
A-|-------------------||*------------------------|------------------------*||
F-|---7-----------7---||---------7-----------7---|----------7----------7---||
C-|----7-6~--------7--||----------7-6---------7--|-----------7-6--------7--||
G-|-------------------||*-----------4------------|-------------4----------*||
D-|-------------------||-------------------------|-------------------------||

                 Repeat loads
D-|-----------------------------||-------------------------|-------------------------||
A-|-----------------------------||*------------------------|------------------------*||
F-|-----------------------------||-------------------------|-------------------------||
C-|-----------------------------||-------------------------|-------------------------||
G-|-6/8/9-5-5-------6/9\8-5-----||*6---5-5------6/8/9-5----|-6---5-5------6/9\8-5---*||
D-|-4/6/7-3-3-------4/7\6-3-----||-4---3-3------4/6/7-3----|-4---3-3------4/7\6-3----||
 |               ||             |             ||
 |               ||             |             ||
D-|-----------------------------||-------------------------|-------------------------||
A-|-----------------------------||*------------------------|------------------------*||
F-|------------7------------7---||----------7-----------7--|----------7-----------7--||
C-|-------------7-6----------7--||-----------7-----------7-|-----------7-----------7-||
G-|---------------4-------------||*------------------------|------------------------*||
D-|-----------------------------||-------------------------|-------------------------||
D-|-----------------------------|-----------------------------|------------|
A-|-----------------------------|-----------------------------|------------|
F-|-----------------------------|-----------------------------|------------|
C-|-----------------------------|-----------------------------|------------|
G-|-6/8/9-5-5------6/8/9-5-5----|-6/9\7-5---------------------|------------|
D-|-4/8/9-3-3------4/8/9-3-3----|-4/7\6-3---------------------|------------|
 |               |               |      |
 |               |               |      |
D-|-----------------------------|-----------------------------|------------|
A-|-----------------------------|-----------------------------|------------|
F-|------------7-------------7--|-----------------------------|------------|
C-|-------------7-------------7-|-----------------------------|------------|
G-|-----------------------------|-----------------------------|------------|
D-|-----------------------------|-----------------------------|------------|


  Main Riff (played through most of song)
D-|-----------------------------|
A-|-----------------------------|
F-|-----------------------------|
C-|-----------------------------|
G-|-3--3---33--3--33333-5-4-2-5-|
D-|-1--1---11--1--11111-5-4-2-5-|
      x   xxxxx   x

Key:

x - Palm mute this note/chord
~ - Vibrato (oooerr missus!)
/ - Slide UP to the next note/chord
\ - Slide DOWN to the next note/chord

Cry for help
============

If anybody could please send me tabs for the following stuff I would be most grateful - I
don't mindwhat version they are or how comlpete, any contribution would be greatly appreciated.
Thanx M8s!!!! ;-)

Biohazard : Anything off "Urban Discipline" (except Punishment).
Corrosion Of Conformity : Anything off "Deliverance" - especially the track
             "Clean My Wounds" (Its fuckin' excellent!)
Deicide : Anything off "Once Upon The Cross" (killer album)
Dog Eat Dog : Anything off the "All Boro Kings : Special Edition" CD.
Downset : Anything off the "Downset" album.
Faith No More : Anyhting from "The Real Thing", "Angel Dust" and especially
        stuff from "King For Chord diagramA augmentedA Day ... Fool For Chord diagramA augmentedA Lifetime".
Machine Head : Anything from "Burn My Eyes" (especially your
        own versions of Davidian and Old).
Pantera : Anything off "Far Beyond Driven" but not "Vulgar Display of
     Power" -I've got loads off that already :-)
Sepultura : Anything off "Arise", "Bestial Devastation",
      "Beneath The Remains" or "Morbid Visions".
Therapy ? : The song "Knives" off "Troublegum"
Ugly Kid Joe : Anything off "Ugly As They Wanna Be", "America's Least Wanted" or
        "Menace To Sobriety".
White Zombie : Anything off "Astro Creep : 2000" - especially the two
        "Electric Head" songs and "Super-Charger Heaven"


--Part9511021304A--

DAVIDIAN


Tuning:
6-C	3-F
5-G	2-A
4-C	1-D
			  pm
	harm			   harm		   harm
|----------------------------|-------------------------------|---------------------------------|
|----------------------------|-------------------------------|---------------------------------|
|----------------------------|-------------------------------|---------------------------------|
|--------5------------------|-----------5-------------------|-------5------------------------|
|--0--------5--1----(1)/---|--0--0--------5--1--3--4----|--0-------5--1----(1)/---------|
|--0------------1----(1)/---|--0--0-----------1--3--4----|--0-----------1----(1)/---------|

  pm							pm
	  harm		    harm
|----------------------------------|---------------------------|---------------------------------|
|----------------------------------|---------------------------|---------------------------------|
|----------------------------------|---------------------------|---------------------------------|
|-----------5---------------------|-------5-------------------|------------5-------------------|
|--0--0--------5--1--1/4---3---|--0--------5---1----(1)/--|--0---0-------5--1--3--4------|
|--0--0-----------1--1/4---3----|--0------------1----(1)/--|--0---0-----------1--3--4------|


___________________________________________________________
|1.
			 pm			   pm			 repeat
	harm			harm			 harm
|-------------------------|------------------------------|---------------------------------|
|-------------------------|------------------------------|---------------------------------|
|-------------------------|------------------------------|---------------------------------|
|-------5-----------------|-----------5-----------------|---------5----------------------|
|--0--------5--1---(1)/--|--1---1--------5--1--3--4--|--1--1------5-----1--1/4---3--|
|--0------------1---(1)/--|--1---1-----------1--3--4--|--1--1-------------1--1/4---3--|
________________________________	__________________________________
|2.					      |3.
		    pm						  pm
	harm		   harm
|---------------------|------------------------------|-----------------------------|----------------------|
|---------------------|------------------------------|-----------------------------|----------------------|
|---------------------|------------------------------|-----------------------------|------5---------------|
|-------5------------|----------5-------------------|----------5-----------------|---------5------------|
|--0-------5---(1)/--|--0--0------5--1--1/4---3--|--1--1------5--1--3---4--|-1-1------1--/4-3---|
|--0------------(1)/--|--0--0---------1--1/4---3--|--1--1----------1--3---4--|-1-1------1-1/4-3---|



|--------------------|----------------------|--------------------|---------------------------|
|--------------------|----------------------|--------------------|---------------------------|
|--------------------|------------------15/|-19-----------------|--(19)--------------------|
|--------------------|------------------15/|-19-----------------|--(19)--------------------|
|--0----------------|--(0)-------------13/|-17-----------------|--(17)--------------------|
|--0----------------|--(0)-----------------|--------------------|---------------------------|

Rhy Fig 1
	pm		pm-----------------|   pm
|--------------------|------------------------------------------|-------------------|------------------|
|--------------------|------------------------------------------|-------------------|------------------|
|--------------------|------------------------------------------|-------------------|------------------|
|--------------------|------------------------------------------|--------%-x-2---|------%-x-2----|
|--0--0--1--0--0--|--(0)-----------------------6-----3--4--|-------------------|------------------|
|--0--0--1--0--0--|--(0)--0--0--0--0--0--0--6--0--3--4--|-------------------|------------------|

					(End Rhy Fig 1)
	pm		   pm---------------|		w/Rhy Fig 1 (1st 7 bars only)
|-----------------------|----------------------------------|---------------------------------------|
|-----------------------|----------------------------------|---------------------------------------|
|-----------------------|----------------------------------|---------------------------------------|
|-----------------------|----------------------------------|---------------------------------------|
|--0--0---1--0----0--|--(0)------------------------6---|---------------------------------------|
|--0--0---1--0----0--|--(0)--0--0--0--0--0--0--6---|----------------------------------------|


w/Rhy Fig 1 (1st 7 bars only	    w/Rhy Fig 1 (1st 6 bars only)	LET FREEDOM...
|---------------------------------------|---------------------------------------|---------------------------|
|---------------------------------------|---------------------------------------|---------------------------|
|---------------------------------------|---------------------------------------|---------------------------|
|---------------------------------------|---------------------------------------|---------------------------|
|---------------------------------------|---------------------------------------|--6-----------------------|
|---------------------------------------|---------------------------------------|--6-----------------------|

									semi-harm
 SHOTGUN BLAST !
|--------------------------------------|------------------------------|-------------------------------|
|--------------------------------------|------------------------------|--------------0--0--0---------|
|--------------------------------------|------------------------------|-------------------------------|
|--------------------------------------|------------------------------|-------------------------------|
|---------------------------x---------|--0-----3--0--6--5--0--3--|--(3)--4---------------0--1--|
|---------------------------x----x\---|--0-----3--0--6--5--0--3--|--(3)--4---------------0--1--|


			      X pm-------------------------|
|------------------------------|----------------------------------------------|-----------------------------|
|------------------------------|----------------------------------------------|-----------------------------|
|------------------------------|----------------------------------------------|-----------------------------|
|------------------------------|----------------------------------------------|-----------------------------|
|--0-----3--0--6--5--0--3--|--(3)--4-------------------------------------|--0-----3--0--6--5--0--3--|
|--0-----3--0--6--5--0--3--|--(3)--4---1-1-1-1-4-4-4-4-3-3-3-3-----|--0-----3--0--6--5--0--3--|


	semi-harm
|-------------------------------|------------------------------|-------------------------------------------|
|-----------0--0--0-----------|------------------------------|-------------------------------------------|
|-------------------------------|------------------------------|-------------------------------------------|
|-------------------------------|------------------------------|-------------------------------------------|
|--(3)--4---------------0--1--|--0-----3--0--6--5--0--3--|-------------------------------------------|
|--(3)--4---------------0--1--|--0-----3--0--6--5--0--3--|--(3)--4---1-1-1-1-4-4-4-4-3-3-3-3--|

							____________________________
							|1.			  w/Rhy Fig 1|
|------------------------------|--------------------------------|------------------------------|------------|
|------------------------------|--------------------------------|------------------------------|------------|
|------------------------------|--------------------------------|------------------------------|------------|
|------------------------------|--------------------------------|------------------------------|------------|
|--0-----3--0--6--5--0--3--|--(3)--4----------------0--1--|--0-----3--0--6--5--0--3--|-------------|
|--0-----3--0--6--5--0--3--|--(3)--4---x---x---x--0--1--|--0-----3--0--6--5--0--3--|-------------|
____________________
|2.				    pm----------------------|
|------------------------------|----------------------------------------|
|------------------------------|----------------------------------------|
|------------------------------|----------------------------------------|
|------------------------------|----------------------------------------|
|--0-----3--0--6--5--0--3--|--(3)--4-------------------------------|
|--0-----3--0--6--5--0--3--|--(3)--4--1--1--1--4---3--1--1--1--|


*SOLO - Make string noise by trembling bar for 8 bars
One Guitar Play This During First 8 Bars Of SOLO

     pm    pm                   pm    			pm
|---------------------------|--------------------------------|------------------------------|
|---------------------------|--------------------------------|------------------------------|
|---------------------------|--------------------------------|-----------------------------|
|---------------------------|--------------------------------|-----------------------------|
|--0---------1---------0--|--(0)--0--0--0--6-----3--4---|--0-----0--0--1---------0--|
|--0----0---1--0--0--0--|--(0)--0--0--0--6--0--3--4---|--0-----0--0--1--0--0--0--|


		   pm				pm			   pm
|---------------------------------|------------------------------|--------------------------------|
|---------------------------------|------------------------------|--------------------------------|
|---------------------------------|------------------------------|--------------------------------|
|---------------------------------|------------------------------|--------------------------------|
|--(0)--0--0--0--6------3--4--|--0-----0--0--1---------0--|--(0)--0--0--0--6------3--4--|
|--(0)--0--0--0--6--0--3--4--|--0-----0--0--1--0--0--0--|--(0)--0--0--0--6--0--3--4--|

							  *1        *1
							      h  p
|------------------------------|---------------------------------|------------------------|
|------------------------------|---------------------------------|------------------------|
|------------------------------|---------------------------------|--7--7--8--7----------|
|------------------------------|---------------------------------|-----------------6------|
|--0-----0--0--1--0--0--0--|--(0)--0--0--0--6------3--4---|------------------------|
|--0-----0--0--1--0--0--0--|--(0)--0--0--0--6--0--3--4---|------------------------|
							  *Depress Bar Before Stiking

 1     h       				   h		      ah  1
|--------------------------------------|-------------------------------------------------------|
|--------------------------------------|------------10--10--11--11--13--13--13-----11--|
|--7--(7)--8----8/11--12--11--11--|--11--12---------------------------------------------|
|--------------------------------------|-------------------------------------------------------|
|--------------------------------------|-------------------------------------------------------|
|--------------------------------------|-------------------------------------------------------|

						tremble  1
              1      p              ah----------------------|  h
|-------------------------------------------------|---------------------|--------------------------|
|--10--------------------------------------------|---------------------|---------------------7----|
|---------12--12--12--(12)--10---------------|--5-----------------|-------5--7----7/8-------|
|------------------------------------12--(12)\--|---------6-----------|--(6)---------------------|
|-------------------------------------------------|---------------------|--------------------------|
|-------------------------------------------------|---------------------|--------------------------|

									  w/Riff Chord diagramA augmentedA
   h  p		   h     h					    1   1      1
|----------------------------------------|----------------8--8/10--11--10-------|--------10---10------|
|--7--8--7------7----8/10--7/8--10--|--11--8--10-----------------------13--|--13---13-------13---|
|-------------8-------------------------|------------------------------------------|-----------------------|
|----------------------------------------|-----------------------------------------|------------------------|
|----------------------------------------|-----------------------------------------|------------------------|
|----------------------------------------|-----------------------------------------|------------------------|

			------------|  PM-------------------------------------------------------------
            1    1			RIFF Chord diagramA augmentedA			play 7 times
|---------10------------------10--10--|--------------------------|--------------------------|
|--(13)--------13-----13----13--13--|--------------------------|--------------------------|
|----------------------------------------|--------------------------|--------------------------|
|----------------------------------------|--------------------------|------------66335544--|
|----------------------------------------|--------------------55---|---666633--------------|
|----------------------------------------|--000066663333---66|66-----------------------|

					  End Rhy Fill 1
|----------------------------|------------------|------------------|
|----------------------------|------------------|------------------|
|----------------------------|------------------|------------------|
|----------------------------|------------------|------------------|
|--------------------55-----|-----666633----|--6--------------|
|--000066663333---66--|--66-------------|--6--------------|

			 ------------------|      	     ------------|
   1   1           1				    1		   1   1
|---------10---10--10--10--|--10--10---------10-------10--|--10---10--10--10---10-------|
|--13----13-------------13--|--13--13--13---------13-------|--13---13--13--13---13--13--|
|------------------------------|----------------------------------|----------------------------------|
|------------------------------|----------------------------------|----------------------------------|
|------------------------------|----------------------------------|----------------------------------|
|------------------------------|----------------------------------|----------------------------------|

	      								-----|
   1	    1     1      1    1     1     1	          1   1   1
|--10-------10-------10-------10--|-----------13--------------|-------------------------19------------|
|--13--13--13--13--13--13--13--|--16------16------19-----|--(19)--19--19--19---16------------|
|-------------------------------------|----------------------------|----------------------------------------|
|-------------------------------------|----------------------------|----------------------------------------|
|-------------------------------------|----------------------------|----------------------------------------|
|-------------------------------------|----------------------------|----------------------------------------|

 				     ----------------|
   1     1     1         1   1			 1=1/2  1    1
|----------16-----------|-----------------------------------|-----------16----------|
|--19-----19-----19---|--(19)--19--19--19--19---19--|--19------19-----19--|
|------------------------|-----------------------------------|------------------------|
|------------------------|-----------------------------------|------------------------|
|------------------------|-----------------------------------|------------------------|
|------------------------|-----------------------------------|------------------------|

							    ----------------------------------|
   1     1      1      1		  1      1     1
|--16-------16-------16-------16-------|------------16------------|--(16)-16-16-16-16-16-16-----|
|--19--19--19--19--19--19--19--19--|--19-------19-------19--|--(19)-|19-19-19-19-19-19-19|
|------------------------------------------|----------------------------|-----------------------------------|
|------------------------------------------|----------------------------|-----------------------------------|
|------------------------------------------|----------------------------|-----------------------------------|
|------------------------------------------|----------------------------|-----------------------------------|

     		  ------------------------
    1    1    1
|----------16-----16--|--(16)---16---16---16--------|
|--19-----19-----19--|--(19)---19---19---19--------|
|-----------------------|---------------------------------|
|-----------------------|---------------------------------|
|-----------------------|---------------------------------|
|-----------------------|---------------------------------|


 pm-------------------------------------------------------------------------------|
|----------------------------|----------|-----------|---------------------------------|
|----------------------------|----------|-----------|---------------------------------|
|----------------------------|----%----|----%----|---------------------------------|
|----------------------------|----------|-----------|---------------------------------|
|----------------------------|----------|-----------|---------------------------------|
|--0-0-0-0-0-0-0-0-0-0--|----------|-----------|--3-3-3-4-4-4-1-1-1-3-3-3--|

								repeat and fade
pm----------------------------------------------------------------------------------------|
|----------------------------|----------|-----------|-----------------------------------------|
|----------------------------|----------|-----------|-----------------------------------------|
|----------------------------|----%----|----%----|-----------------------------------------|
|----------------------------|----------|-----------|-----------------------------------------|
|----------------------------|----------|-----------|-----------------------------------------|
|--0-0-0-0-0-0-0-0-0-0--|----------|-----------|--3-3-3-4-4-4-1-1-1-3-3-3-1-1-1--|

[ Privacy | About us ]

Welcome to the guitar community

Why join and log in?
- Get songbook with favourite songs
- Get custom made front page
- Submit chords and tabs
- Submit guitar-cover videos
- Get a lot of thumbs up for your work

Songbook

Last visited songs

Site
Home
Search
Community
Submit chords

Video

No video for this page. Check out how you can submit guitar-cover videos here

Search tabs and chords

Browse by artist

A B C D E F G H I J K L M N O P Q R S T U V W X Y Z #


Menu

Search

Video

Bookmark

Login