Log in

One click and you are in

Login with Facebook Login with Google

Why sign up and log in

Guitar Tabs Explorer
Machine Head bass tabs for Davidian

Bass tabs with lyrics

Song Title: Davidian
----------------------------------------------

                                                 Antonio Musco <a.musco@tau.it>
Bass Tab: "Davidian" By Machine Head From the Album "Burn my Eyes" (1994)

Note -If you can come up with something better,
    please send it to me at my e-mail address.


Intro :

*Tune down one whole step*
            Repeat x2
F-|-------------------||-------------------------|-------------------------||
C-|-------------------||-------------------------|-------------------------||
G-|-------------------||*------------------------|------------------------*||
D-|-3--------3-3------||-4/6/7-3--------3-3------|-4/7\6-3---------3-3-----||

                                  Repeat loads
F-|-----------------------------||-------------------------|-------------------------||
C-|-----------------------------||-------------------------|-------------------------||
G-|-----------------------------||*------------------------|------------------------*||
D-|-4/6/7-3-3-------4/7\6-3-----||-4---3-3------4/6/7-3----|-4---3-3------4/7\6-3----||

F-|-----------------------------|-----------------------------|------------|
C-|-----------------------------|-----------------------------|------------|
G-|---8/9------------8/9--------|---9\7-----------------------|------------|
D-|-4/8/9-3-3------4/8/9-3-3----|-4/7\6-3---------------------|------------|


   Main Riff (played through most of song)
F-|-----------------------------|
C-|-----------------------------|
G-|---------------------5-4-2-5-|
D-|-1--1---11--1--11111-5-4-2-5-|

Key:

/ - Slide UP to the next note/chord
\ - Slide DOWN to the next note/chord

Cry for help

If anybody could please send me(or post 'em) bass tabs for the following
stuff I would be most grateful - I don't mindwhat version they are or
how comlpete, any contribution would be greatly appreciated.
Thanx M8s!!!! ;-)

Black Sabbath: The tracks "War Pigs" and "Under The Sun".

Dark Tranquillity: Anything off "The Gallery".

King Crimson: The Song "21st Century Schizoid Man".

Machine Head : Anything from "Burn My Eyes".

Metallica: Anything off "Load".

Pink Floyd: "One Of These Days".

Sepultura : Anything off "Arise", "Bestial Devastation",
            "Beneath The Remains" , "Morbid Visions" or "Roots".

Tiamat: "A Caress Of Stars".
antonio musco <a.musco@tau.it>

Submitted by:  Antonio Musco (a.musco@tau.it)

Almost there ...

Sign in to get your own page with links to favourite songs and more. You are just one click away...

Login with Facebook Login with Google