Log in

One click and you are in

Login with Facebook Login with Google

Why sign up and log in

Guitar Tabs Explorer
Machine Head guitar tabs for Bush

Guitar tabs

-----------------------------------------------------------------------------
			     BUSH - MACHINE HEAD
-----------------------------------------------------------------------------
Tabbed by: kujo987
Tuning: standard

e|------------------------------------------------------------------|
B|------------------------------------------------------------------|
G|------------------------------------------------------------------|
D|--11--11--13-13-13-14--16-16--16--x-x-----------------------------|
A|--11--11--13-13-13-14--16-16--16--x-x-----------------------------|
E|--9---9---11-11-11-12--14-14--14--x-x-----------------------------|

e|------------------------------------------------------------------|
B|---/14-14-14-14-14-14\12-12-12-12-12-12\--------------------------|
G|---/13-13-13-13-13-13\11-11-11-11-11-11\--------------------------|
D|------------------------------------------------------------------|
A|------------------------------------------------------------------|
E|------------------------------------------------------------------|

e|------------------------------------------------------------------|
B|------------------------------------------------------------------|
G|------------------------------------------------------------------|
D|--11--11-x-x-x-11--11-11-x-x-x-x----------------------------------|
A|--11--11-x-x-x-11--11-11-x-x-x-x----------------------------------|
E|--9---9--x-x-x-9---9--9--x-x-x-x----------------------------------|

e|------------------------------------------------------------------|
B|------------------------------------------------------------------|
G|------------------------------------------------------------------|
D|--7--7-x-x-x-7--7-7-x-x-x-x---------------------------------------|
A|--7--7-x-x-x-7--7-7-x-x-x-x---------------------------------------|
E|--5--5-x-x-x-5--5-5-x-x-x-x---------------------------------------|

e|----------------------4--------------------------------------------|
B|----------------------5--------------------------------------------|
G|-------------6--------6--------------------------------------------|
D|--9--x-7-----6--------6--------------------------------------------|
A|--9--x-7-----4--------4--------------------------------------------|
E|--7--x-5-----------------------------------------------------------|

e|-------------------------------------------------------------------|
B|----4h5-5-5-4h-5-5-4h-5-5-4h-5-5-----------------------------------|
G|-------------------------------------------------------------------|
D|-------------------------------------------------------------------|
A|-------------------------------------------------------------------|
E|-------------------------------------------------------------------|

e|-------------------------------------------------------------------|
B|-------------------------------------------------------------------|
G|-------------------------------------------------------------------|
D|----4-4-x-x-x-x-4-4-x-x-7-7-x-x-x-x-7-7----------------------------|
A|----4-4-x-x-x-x-4-4-x-x-7-7-x-x-x-x-7-7----------------------------|
E|----2-2-x-x-x-x-2-2-x-x-5-5-x-x-x-x-5-5----------------------------|

e|-------------------------------------------------------------------|
B|-------------------------------------------------------------------|
G|-------------------------------------------------------------------|
D|--14-14-x-x-x-9--9-9-x-x-x-x--11-11-x-x-x-7-7-x-x-x-x--------------|
A|--14-14-x-x-x-9--9-9-x-x-x-x--11-11-x-x-x-7-7-x-x-x-x--------------|
E|--12-12-x-x-x-7--7-7-x-x-x-x--9--9--x-x-x-5-5-x-x-x-x--------------|

this has got everything you need to play this song except for a few fills.
enjoy!

************************************

| /   slide up
| \   slide down
| h   hammer-on
| p   pull-off
| ~   vibrato
| +   harmonic
| x   Mute note
| b   Bend
| pb  Pre-bend
| br  Bend release
| pbr Pre-bend release
| brb Bend release bend

Almost there ...

Sign in to get your own page with links to favourite songs and more. You are just one click away...

Login with Facebook Login with Google