Log in

One click and you are in

Login with Facebook Login with Google

Why sign up and log in

Guitar Tabs Explorer
Machine Head guitar tabs for Bulldozer

Guitar tabs

Bulldozer-Machine Head

	Tabbed by srg-slash

	Tuning: Drop A chord diagramBB

 Intro
	C#|-----21--21--21---22--22--22--------------|
	G#|-------18--18-18----19--19-19-------------|
	E |------------------------------------------|
	B |------------------------------------------|
	F#|------------------------------------------|
	B |------------------------------------------|
 Riff 1:
    C#|------------------------------------------|
    G#|------------------------------------------|
    A chord diagramE MajorE |-8-7---------------------8-----8-----8----|
    A chord diagramBB |-8-7-0-0-0-0-0-0-0-0-0-0-8-0-0-8-0-0-8-0--|
    F#|-6-5-0-0-0-0-0-0-0-0-0-0-6-0-0-6-0-0-6-0--|
    A chord diagramBB |-----0-0-0-0-0-0-0-0-0-0---0-0---0-0---0--|
     PM - - - - - - - - - - - - - - - - - - - -

     Riff 2:
    C#|------------------------------------------|
    G#|------------------------------------------|
    A chord diagramE MajorE |-8-7--------------------------------------| last time, don't play the
    A chord diagramBB |-8-7-0-0-0-0-0-0-0-0-0-0-1-----3----(1)---| last (1) and hold the 3
    F#|-6-5-0-0-0-0-0-0-0-0-0-0-1-----3----(1)---|
    A chord diagramBB |-----0-0-0-0-0-0-0-0-0-0-1-----3----(1)---|
     PM - - - - - - - - - - - - -

     Riff 3: (flanger)
    C#|----------------------------------------|
    G#|----------------------------------------|
    A chord diagramE MajorE |----------------------------------------|
    A chord diagramBB |-0-----1-1-1-1-0-----3--1--0--1--0------|
    F#|-0-----1-1-1-1-0-----3--1--0--1--0------|
    A chord diagramBB |-0-----1-1-1-1-0-----3--1--0--1--0------|

     Riff 4: (clean)
    C#|--------------------------------|
    G#|--------------------------------|
    A chord diagramE MajorE |--------------------------------|
    A chord diagramBB |--------------------------------|
    F#|--------------------------------|
    A chord diagramBB |-3-1-0-1-0--3-1-0-1-0--3-1-0----|

     Riff5 :
    C#|---------------------------------|
    G#|---------------------------------|
    A chord diagramE MajorE |---------------------------------| riff played in 5th's later
    A chord diagramBB |---------------------------------| in the song w/o PM's
    F#|---------------------------------|
    A chord diagramBB |-3-1-0-1-0-0-3-1-0-1-0-0-3-1-0-0-|
     PM - - - - - - - - - - - - - - - -

     Riff 6: (w/ wah)
    C#|--------------------------------|
    G#|--------------------------------|
    A chord diagramE MajorE |-10-9--8-7--10-9--8-7--10-9--7-8|
    A chord diagramBB |--------------------------------|
    F#|--------------------------------|
    A chord diagramBB |--------------------------------|

     Riff 7:
    C#|---------------------------------------|
    G#|---------------------------------------|
    A chord diagramE MajorE |---------------------------------------|
    A chord diagramBB |-6-6-6-6-6-6-6-6-6-6-6-6-6-6-6-9-9-9-9-|
    F#|-6-6-6-6-6-6-6-6-6-6-6-6-6-6-6-9-9-9-9-|
    A chord diagramBB |-6-6-6-6-6-6-6-6-6-6-6-6-6-6-6-9-9-9-9-|

     Riff 8:
    C#|-------|
    G#|-------|
    A chord diagramE MajorE |-7~----|
    A chord diagramBB |-------|
    F#|-------|
    A chord diagramBB |-------|

     Riff 9:
    C#|---------------------------------------|
    G#|---------------------------------------|
    A chord diagramE MajorE |---------------------------------------|
    A chord diagramBB |-6-6-6-6-6-6-6-6-6-6-6-6-6-6-6-9-9-9-9-|
    F#|---------------------------------------|
    A chord diagramBB |---------------------------------------|

     Riff 10:
    C#|-------------------------------|
    G#|-------------------------------|
    A chord diagramE MajorE |-------------------------------|
    A chord diagramBB |-2b--0--1--0--2b--0--1--0--0-0-|
    F#|-2b--0--1--0--2b--0--1--0--0-0-|
    A chord diagramBB |-2b--0--1--0--2b--0--1--0--0-0-|

Almost there ...

Sign in to get your own page with links to favourite songs and more. You are just one click away...

Login with Facebook Login with Google