Log in

One click and you are in

Login with Facebook Login with Google

Why sign up and log in

Guitar Tabs Explorer
Machine Head guitar tabs for Block

Guitar tabs

Machine Head - Block

Tabbed By Bloodtaster


Tuning Low To High – D,G,C,F,A,D

  * - Natural Harmonic
  / - Slide Up
   - Slide Down
P.M – Palm Mute


Intro x 8

|---------------------------------------|
|---------------------------------------|
|---------------------------------------|
|---------------------------------------|
|---------------------------------------|
|--0--1-p-0--3-h-4--0-0-0-1-0-4-p-3--0--|
  P.M.-   -  -   -  - - - - - -   -  -



Intro Riff 2 x 8

|----------------------------------|
|----------------------------------|
|----------------------------------|
|----------------------------------|
|--2--3---2--5/6-----2--3--6-5-----|
|--0--1-p-0--3/4--0--0--1--4-3--0--|
  P.M.            -             -



Verse
                                       1.            2.
|-------------------------------------|-------------|-------------|
|-------------------------------------|-------------|-------------|
|-10-10-10-10-10-10-10-10-10-10-10-10-|-10-10-10-10-|-13-13-13-13-|
|-------------------------------------|-------------|-------------|
|-8--8--8--8--8--8--8--8--8--8--8--8--|-8--8--8--8--|-11-11-11-11-|
|-------------------------------------|-------------|-------------|


|----------------------------------|
|----------------------------------|
|----------------------------------|
|----------------------------------|
|--2--3---2--5/6-----2--3--6-5-----|
|--0--1-p-0--3/4--0--0--1--4-3--0--| x 2
  P.M.            -             -


                                       1.            2.
|-------------------------------------|-------------|-------------|
|-------------------------------------|-------------|-------------|
|-10-10-10-10-10-10-10-10-10-10-10-10-|-10-10-10-10-|-13-13-13-13-|
|-------------------------------------|-------------|-------------|
|-8--8--8--8--8--8--8--8--8--8--8--8--|-8--8--8--8--|-11-11-11-11-|
|-------------------------------------|-------------|-------------|


|----------------------------------|
|----------------------------------|
|----------------------------------|
|----------------------------------|
|--2--3---2--5/6-----2--3--6-5-----|
|--0--1-p-0--3/4--0--0--1--4-3--0--| x 2
  P.M.            -             -


|---------------------------------|
|---------------------------------|
|---------------------------------|
|-8-8-8-8-8-8-8-8-8-8-8-8-8-8-8-8-|
|---------------------------------|
|-6-6-6-6-6-6-6-6-6-6-6-6-6-6-6-6-|


|------------------------------5*---|
|-8-8-8-8-8-8-8-8-8-8-8-8----5*--5*-|
|--------------------------5*-------|
|-5-5-5-5-5-5-5-5-5-5-5-5-----------|
|-----------------------------------|
|-----------------------------------|



Chorus x 2

|---------------------------|
|---------------------------|
|---------------------------|
|---------------------------|
|-2-2-2-2--5-2----3-5----8--|
|-0-0-0-0--3-0--0-1-3-0--6--|
P.M.- - -       -     -


|----------------------------5*----|
|--------------------------5*--5*--|
|------------------------5*--------|
|----------------------------------|
|-2-2-2-2--5-2----3-5--------------|
|-0-0-0-0--3-0--0-1-3-0------------|
P.M.- - -       -     -


Intro Riff 2


Verse


Chorus

|------5*----|
|----5*--5*--| -Let ring on the last one
|--5*--------|
|------------|
|------------|
|------------|



|-------|
|-------|
|-------|
|-------|
|--/x--|
|--/x--| Long Slide


Middle 8 x 2
                               1,2,3.  4.
|-----------------------------|-------|---------|
|-----------------------------|-------|---------|
|-----------------------------|-------|--7/9-7--|
|-----------------------------|-------|---------|
|--2--------7-8-8-8--3--2--2--|--2----|--5/7-5--|
|--0-0-0-0--5-6-6-6--1--0--0--|--0----|---------|
 P.M.- - -


Guitar 1 x 3
Guitar 2 x 2
|-----------------------------------------------|
|-----------------------------------------------|
|-----------------------------------------------|
|--------------------8--------------------------|
|--9----8--5---------7--------------------------|
|--7----6--3--0-0-0-----0-0-0-0-0-0-0-0-0-0-0-0-|
  P.M.        - - -     - - - - - - - - - - - -


 Then Guitar 2 x 1
|-----------------------------------------------|
|-----------------------------------------------|
|-------7--10-----------------------------------|
|--9-----------------8--------------------------|
|-------5---8--------7--------------------------|
|--7----------0-0-0-----0-0-0-0-0-0-0-0-0-0-0-0-|
  P.M.        - - -     - - - - - - - - - - - -


  Guitar 1
|------------------------|
|------------------------|
|--16---15-12--9/10-9----|
|------------------------|
|--14---13-10--7/8--7----| Let Ring
|------------------------|
|
| Guitar 2
|------------------------|
|------------------------|
|-------7--10--9/10-9----|
|--9---------------------|
|-------5---8--7/8--7----| Let Ring
|--7---------------------|


Intro x 4


Intro Riff 2


Verse


Chorus


Outro x 8

Both Guitars
|--------------------------------|
|--------------------------------|
|--------------------------------|
|--------------------------------|
|-2-2-2-2--5-2----3-5----8-8-8-8-|
|-0-0-0-0--3-0--0-1-3-0--6-6-6-6-|
P.M.- - -       -     -


|-------|
|-------|
|-------|
|--2----|
|--2----| Let Ring
|--0----|

Almost there ...

Sign in to get your own page with links to favourite songs and more. You are just one click away...

Login with Facebook Login with Google