Log in

One click and you are in

Login with Facebook Login with Google

Why sign up and log in

Guitar Tabs Explorer
Machine Head bass tabs for Be still and know

Bass tabs with lyrics

Band:   Machine Head
Album:  Unto The Locust (2011)

Tuning: E) tuned 40 cents sharper

Same as the 'I Am Hell' tab this is exactly the same layout as Slipknot836's
tab. hes my friend, he is okay with me using is tab layout and editing it to
transcribe the bass version ;)

Alrighty, please rate ;)

Tabbing Legend
Hammer on:          h
Pull off:           p
Slide up:           /
Slide down:         \
Slight bend:        sb

____________________________________________________________________________


Intro
|---------|---------|---------|---------|
|---------|---------|---------|---------|
|-7-------|-3-------|-5-------|-0---2---|
|---------|---------|---------|---------|

|---------|---------|---------|---------|
|---------|---------|---------|---------|
|-7--10---|-3-------|-5-------|-0---2---|
|---------|---------|---------|---------|

____________________________________________________________________________

Verse 1
Both guitars
|-------------------------------------------------|
|-------------------------------------------------|
|-------------------------------------------------|
|-0---0-0---0-1p0-3p0-1p0-1p0-0-0---0-0-1-3-4-3-1-|

|-------------------------------------------------|
|-------------------------------------------------|
|---------------------------------------------2-3-|
|-0---0-0---0-1p0-3p0-1p0-0-1-3-4-3-1-0-1-3-4-----|

|-------------------------------------------------|
|-------------------------------------------------|
|-------------------------------------------------|
|-0---0-0---0-1p0-3p0-1p0-1p0-0-0---0-0-1-3-4-3-1-|

|---------------------------------------------7-4-|
|---------------------------------6-3-----6-3-----|
|-----------------------------5-2-----5-2---------|
|-0---0-0---0-1p0-3p0-1p0-4-1---------------------|

____________________________________________________________________________


Verse 2
Both guitars
|-------------------------------------1-2-4-5-4-2-|
|-------------------------------------------------|
|-2-2-2-2-2-2-2-2-2-2-2-2-2-2-2-2-2-2-------------|
|-------------------------------------------------|

|-------------------------------------------------|
|-------------------------------------------------|
|-2-2-2-2-2-2-2-2-2-2-2-2-2-2-2-2-2-2-2-2-2-2-2-2-|
|-------------------------------------------------|

|-------------------------------------1-2-4-5-4-2-|
|-------------------------------------------------|
|-2-2-2-2-2-2-2-2-2-2-2-2-2-2-2-2-2-2-------------|
|-------------------------------------------------|

|-------------------------------------------------|
|-------------------------------------------------|
|-2-2-2-2-2-2-2-2-2-2-2-2-2-2-2-2-2-2-2-2-2-2-2-2-|
|-------------------------------------------------|

____________________________________________________________________________


Chorus 1
|-------------------------------------|-------------------------------------|
|-------------------------------------|-------------------------------------|
|-------------------------------------|-33333-------3-3-3-33333-------3-3-3-|
|-00000-------0-0-0-00000-------0-0-0-|-------------------------------------|

|-------------------------------------|-------------------------------------|
|-------------------------------------|-------------------------------------|
|-55555-------5-5-5-55555-------5-5-5-|-00000-------0-0-0-22222-------2-2-2-|
|-------------------------------------|-------------------------------------|

____________________________________________________________________________


Repeat Verse 1

Repeat Verse 2

Repeat Chorus 1

Repeat Intro

____________________________________________________________________________


Solo 1
|-------------------------------------------------|
|-------------------------------------------------|
|-2---2-2-2-2-3---2---0---2---2-2-2-2-5---5---3---|
|-------------------------------------------------|

|-------------------------------------------------|
|-------------------------------------------------|
|-2---2-2-2-2-3---2---0---2---2-2-2-2-------------|
|-------------------------------------2---2---2---|


Solo 2
|-------------------------------------------------|
|-------------------------------------------------|
|-------------------------------------------------|
|-2---2-2-2-2-3---2---0---2---2-2-2-2-5---5---3---|

|-------------------------------------------------|
|-------------------------------------------------|
|-------------------------------------------------|
|-2---2-2-2-2-3---2---0---2---2-2-2-2-0---0---0---|

Harmonised Solo
|-------------------------------------------------|
|-------------------------------------------------|
|-------------------------------------------------|
|-0-0-0-0-0-0-0-0-0-0-0-0-0-0-0-0-0-0-0-0-0-0-0-0-|
|-------------------------------------------------|
|-------------------------------------------------|
|-------------------------------------------------|
|-0-0-0-0-0-0-0-0-0-0-0-0-0-0-0-0-0-0-0-0-0-0-0-0-|

|-------------------------------------------------|
|-------------------------------------------------|
|-------------------------------------------------|
|-0-0-0-0-0-0-0-0-0-0-0-0-2-2-2-2-2-2-2-2-2-2-2-2-|

|-------------------------------------------------|
|-------------------------------------------------|
|-------------------------------------------------|
|-3-3-3-3-3-3-3-3-3-3-3-3-6-6-6-6-6-6-6-6-6-6-6-6-|


____________________________________________________________________________


Breakdown
|-------------------------------------------------|
|-------------------------------------------------|
|-------------------------------------------------|
|-5-5---------5-5---------5-5---------5-5---------|

|-------------------------------------------------|
|-------------------------------------------------|
|-------------------------------------------------|
|-4-4---------4-4---------4-4---------4-4---------|

|-------------------------------------------------|
|-------------------------------------------------|
|-------------------------------------------------|
|-1-1---------1-1---------1-1---------1-1---------|

|-------------------------------------------------|
|-------------------------------------------------|
|-------------------------------------------------|
|-4-4---------4-4---------4-4---------4-4---------|

|-------------------------------------------------|
|-------------------------------------------------|
|-------------------------------------------------|
|-5-5---------5-5---------5-5---------5-5---------|

|-------------------------------------------------|
|-------------------------------------------------|
|-------------------------------------------------|
|-4-4---------4-4---------4-4---------4-4---------|

|-------------------------------------------------|
|-------------------------------------------------|
|-------------------------------------------------|
|-1-1---------1-1---------1-1---------1-1---------|

|-------------------------------------------------|
|-------------------------------------------------|
|-------------------------------------------------|
|-0-----------------------0-----------------------|

____________________________________________________________________________


Verse 3
|-------------------------------------------------|
|-------------------------------------------------|
|-------------------------------------------------|
|-0-----------------------------------------------|

|-------------------------------------------------|
|-------------------------------------------------|
|---------------------------------------------2-3-|
|------------12\----------0-1-3-4-3-1-0-1-3-4-----|

|-------------------------------------------------|
|-------------------------------------------------|
|-------------------------------------------------|
|-0-----------------------------------------------|

|-------------------------------------------------|
|-------------------------------------------------|
|-------------------------------------------------|
|-------------------------------------------------|

____________________________________________________________________________


Repeat Verse 1

Repeat Verse 2

____________________________________________________________________________


Chorus 2
|-------------------------------------|-------------------------------------|
|-------------------------------------|-------------------------------------|
|-------------------------------------|-3-------------3-3-3-------------3-3-|
|-------------------------------------|-------------------------------------|

|-------------------------------------|-------------------------------------|
|-------------------------------------|-------------------------------------|
|-5-------------5-5-5-------------5-5-|-0-------------0-0-2-------------2-2-|
|-------------------------------------|-------------------------------------|

|-------------------------------------|-------------------------------------|
|-------------------------------------|-------------------------------------|
|-------------------------------------|-33333-------3-3-3-33333-------3-3-3-|
|-00000-------0-0-0-00000-------0-0-0-|-------------------------------------|

|-------------------------------------|-------------------------------------|
|-------------------------------------|-------------------------------------|
|-55555-------5-5-5-55555-------5-5-5-|-00000-------0-0-0-22222-------2-2-2-|
|-------------------------------------|-------------------------------------|


____________________________________________________________________________


Outro
|-----------------|
|-----------------|
|-----------------|

Almost there ...

Sign in to get your own page with links to favourite songs and more. You are just one click away...

Login with Facebook Login with Google