Log in

One click and you are in

Login with Facebook Login with Google

Why sign up and log in

Guitar Tabs Explorer
Machine Gun Kelly guitar tabs for Why are you here

Guitar tabs

Tuning: Drop A chord diagramD MajorD (A chord diagramD MajorD A chord diagramA majorA A chord diagramD MajorD A chord diagramG MajorG A chord diagramBB A chord diagramE MajorE)


Intro:

E|------8---------------------------------8-----------------------------------|
B|----6----------10-----------10--------6----------10-----------10------------|
G|--7---------10----10-----10---------7---------10----10-----10---------------|
D|----------------------------------------------------------------------------|
A|5--------8-----------------------5---------8--------------------------------|
D|----------------------8---------------------------------8-------------------|


Verse 1:

E|------8---------------------------------8-----------------------------------|
B|----6----------10-----------10--------6----------10-----------10------------|
G|--7---------10----10-----10---------7---------10----10-----10---------------|
D|----------------------------------------------------------------------------|
A|5--------8-----------------------5---------8--------------------------------|
D|----------------------8---------------------------------8-------------------| x4




Pre-Chorus:

E|---------------------------------------------------------------------------|
B|---------------------------------------------------------------------------|
G|----10-9-10------10-9-10----10-9-10----10-9-10-----------------------------|
D|12------------10----------8----------8-------------------------------------|
A|---------------------------------------------------------------------------|
D|---------------------------------------------------------------------------| x4



Chorus:

E|---------------------------------------------------------------------------|
B|---------------------------------------------------------------------------|
G|-7-7-7---------------------------------------------------------------------|
D|-7-7-7---3-3-3---8-8-8-8-8-8-8-8-------------------------------------------|
A|-5-5-5---3-3-3---8-8-8-8-8-8-8-8-------------------------------------------|
D|---------3-3-3---8-8-8-8-8-8-8-8-------------------------------------------| x4




Verse 2:

E|---------------------------------------------------------------------------|
B|---------------------------------------------------------------------------|
G|-----2-------2------------2------------------------------------------------|
D|---3--3----3--3-------3-----3---3------------------------------------------|
A|5-----------------1-1---1-----1--------------------------------------------|
D|---------3-----------------------------------------------------------------| x8


Chorus:

E|---------------------------------------------------------------------------|
B|---------------------------------------------------------------------------|
G|-7-7-7---------------------------------------------------------------------|
D|-7-7-7---3-3-3---8-8-8-8-8-8-8-8-------------------------------------------|
A|-5-5-5---3-3-3---8-8-8-8-8-8-8-8-------------------------------------------|
D|---------3-3-3---8-8-8-8-8-8-8-8-------------------------------------------| x8


Bridge:

E|---------------------------------------------------------------------------|
B|---------------------------------------------------------------------------|
G|-7-7-7-7--10-10-10-10------------------------------------------------------|
D|-7-7-7-7--10-10-10-10--8-8-8-8-8-8-8-8-------------------------------------|
A|-5-5-5-5--8--8--8--8---8-8-8-8-8-8-8-8-------------------------------------|
D|-----------------------8-8-8-8-8-8-8-8-------------------------------------| x4


Chorus:

E|---------------------------------------------------------------------------|
B|---------------------------------------------------------------------------|
G|-7-7-7---------------------------------------------------------------------|
D|-7-7-7---3-3-3---8-8-8-8-8-8-8-8-------------------------------------------|
A|-5-5-5---3-3-3---8-8-8-8-8-8-8-8-------------------------------------------|
D|---------3-3-3---8-8-8-8-8-8-8-8-------------------------------------------| x8

Other versions of Why Are You Here

Why are you hereChords

↓ Add and view comments below ↓

What do you think about this song and these tabs?

Add your comments, questions, rant or a thumbs up below.

Almost there ...

Sign in to get your own page with links to favourite songs and more. You are just one click away...

Login with Facebook Login with Google