Log in

One click and you are in

Login with Facebook Login with Google

Why sign up and log in

Guitar Tabs Explorer
Machine Gun Kelly bass tabs for Why are you here

Why Are You Here bass tab - Machine Gun Kelly

Machine Gun Kelly bass tabs for Why are you here

Bass tabs

Tuning: Drop D (D A D G)


Intro:

"We can never be friends" (just guitar)
Chorus:

starts at 0:09

G|---------------------------------------------------------------------------|
D|---------------------------------------------------------------------------|
A|---5---8-------------------------------------------------------------------| x4
D|-----------8---------------------------------------------------------------|


Verse 1:

G|---------------------------------------------------------------------------|
D|---------------------------------------------------------------------------|
A|---5---8-------------------------------------------------------------------| x4
D|-----------8---------------------------------------------------------------|


Pre-Chorus:

G|---------------------------------------------------------------------------|
D|---------------------------------------------------------------------------|
A|---5-5-5-5---8-8-8-8-------------------------------------------------------| x4
D|-----------------------8-8-8-8-8-8-8-8-------------------------------------|


Chorus:

G|---------------------------------------------------------------------------|
D|---------------------------------------------------------------------------|
A|---5-5-5-5---8-8-8-8-------------------------------------------------------| x4
D|-----------------------8-8-8-8-8-8-8-8-------------------------------------|

Verse 2:

G|---------------------------------------------------------------------------|
D|---------------------------------------------------------------------------|
A|---5---8-------------------------------------------------------------------| x4
D|-----------8---------------------------------------------------------------|


Pre-Chorus:

G|---------------------------------------------------------------------------|
D|---------------------------------------------------------------------------|
A|---5-5-5-5---8-8-8-8-------------------------------------------------------| x4
D|-----------------------8-8-8-8-8-8-8-8-------------------------------------|


Chorus:

G|---------------------------------------------------------------------------|
D|---------------------------------------------------------------------------|
A|---5-5-5-5---8-8-8-8-------------------------------------------------------| x4
D|-----------------------8-8-8-8-8-8-8-8-------------------------------------|

Post-Chorus:

G|---------------------------------------------------------------------------|
D|---------------------------------------------------------------------------|
A|---5-5-5-5---8-8-8-8-------------------------------------------------------| x4
D|-----------------------8-8-8-8-8-8-8-8-------------------------------------|


Bridge:

G|---------------------------------------------------------------------------|
D|---------------------------------------------------------------------------|
A|---5---8-------------------------------------------------------------------| x4
D|-----------8---------------------------------------------------------------|


Chorus:

G|---------------------------------------------------------------------------|
D|---------------------------------------------------------------------------|
A|---5-5-5-5---8-8-8-8-------------------------------------------------------| x4
D|-----------------------8-8-8-8-8-8-8-8-------------------------------------|


Outro:

G|---------------------------------------------------------------------------|
D|---------------------------------------------------------------------------|
A|---5-5-5-5---8-8-8-8-------------------------------------------------------| x4
D|-----------------------8-8-8-8-8-8-8-8-------------------------------------|

Almost there ...

Sign in to get your own page with links to favourite songs and more. You are just one click away...

Login with Facebook Login with Google