Log in

One click and you are in

Login with Facebook Login with Google

Why sign up and log in

Guitar Tabs Explorer
Machine Gun Kelly bass tabs for Title track

Bass tabs

Tuning: Standard (E A D G)


Intro is acoustic guitar.
Pre Chorus: - Starts at 43 seconds

G|---------------------------------------------------------------------------|
D|---------------------------------------------------------------------------|
A|----------------2-2-2-2-2-2-2-2-----------------3-3-3-3-3-3-3-3------------| x4
E|3-3-3-3-3-3-3-3-----------------0-0-0-0-0-0-0-0----------------------------|


Chorus:

G|---------------------------------------------------------------------------|
D|---------------------------------------------------------------------------|
A|----------------2-2-2-2-2-2-2-2-----------------3-3-3-3-3-3-3-3------------| x2
E|3---3---3---3-------------------0-0-0-0-0-0-0-0----------------------------|

G|---------------------------------------------------------------------------|
D|---------------------------------------------------------------------------|
A|----------------2-2-2-2-2-2-2-2-----------------3-3-3-3-3-3-3-3------------|
E|3-3-3-3-3-3-3-3-----------------0-0-0-0-0-0-0-0----------------------------|

G|--------------------------------------|
D|--------------------------------------|
A|----------------2-2-2-2-2-2-2-2-------|
E|3-3-3-3-3-3-3-3-----------------0---0-|


Verse:

G|--------------------------------|
D|--------------------------------|
A|3-3-3-3-3-3-3-3-----------------| x4
E|----------------3-3-3-3-5-5-5-5-|

G|-------------------------------------------------|
D|-------------------------------------------------|
A|----------------3-3-3-3-3-3-3-3-----------------3|
E|5-5-5-5-5-5-5-5-----------------5-5-5-5-5-5-5-5--|


Pre Chorus:

G|---------------------------------------------------------------------------|
D|---------------------------------------------------------------------------|
A|----------------2-2-2-2-2-2-2-2-----------------3-3-3-3-3-3-3-3------------| x2
E|3-3-3-3-3-3-3-3-----------------0-0-0-0-0-0-0-0----------------------------|

G|---------------------------------------------------------------------------|
D|---------------------------------------------------------------------------|
A|----------------2-2-----------------------------3-3-3-3-3-3-3-3------------| x2
E|3-3-----------------------------0-0----------------------------------------|


Chorus/Outro:

G|---------------------------------------------------------------------------|
D|---------------------------------------------------------------------------|
A|----------------2-2-2-2-2-2-2-2-----------------3-3-3-3-3-3-3-3------------| x2
E|3---3---3---3-------------------0-0-0-0-0-0-0-0----------------------------|


G|---------------------------------------------------------------------------|
D|---------------------------------------------------------------------------|
A|----------------2-2-2-2-2-2-2-2-----------------3-3-3-3-3-3-3-3------------|
E|3-3-3-3-3-3-3-3-----------------0-0-0-0-0-0-0-0----------------------------|


G|---------------------------------------------------------------------------|
D|---------------------------------------------------------------------------|
A|----------------2-2-2-2-2-2-2-2-----------------3--2-----------------------|
E|3-3-3-3-3-3-3-3-----------------0-0-0-0-0-0-0-0-------5--3-----------------|

Almost there ...

Sign in to get your own page with links to favourite songs and more. You are just one click away...

Login with Facebook Login with Google