Log in

One click and you are in

Login with Facebook Login with Google

Why sign up and log in

Guitar Tabs Explorer
Machine Gun Kelly guitar tabs for Swing life away

Guitar tabs

e|-------------------0----0--0--0--0--0----------------------------|
B|-0------2----------3----3--3--3--3--3----------------------------|
G|---0-------0-------2----2--2--2--2--2----------------------------|
D|-----0--------4----0----0--0--0--0--0----------------------------|    X2
A|-0-----------------0----0--0--0--0--0----------------------------|
E|--------3----------3----3--3--3--3--3----------------------------|
e|-------------------0----0--0--0--0--0--------2-2-2-2-2-2-2--------|
B|-0------2----------3----3--3--3--3--3--------3-3-3-3-3-3-3--------|
G|---0-------0-------2----2--2--2--2--2--------2-2-2-2-2-2-2--------|
D|-----0--------4----0----0--0--0--0--0--------0-0-0-0-0-0-0--------|
A|-0-----------------0----0--0--0--0--0--------0-0-0-0-0-0-0--------|
E|--------3----------3----3--3--3--3--3-----------------------------|


e|--3-3-3---3-3-3----3-3-3-3-3-3------------------------------------|
B|--3-3-3---3-3-3----3-3-3-3-3-3------------------------------------|
G|--0-0-0---0-0-0----0-0-0-0-0-0------------------------------------|
D|--2-2-2---0-0-0----2-2-2-2-2-2------------------------------------|   X2
A|--2-2-2---2-2-2----3-3-3-3-3-3------------------------------------|
E|--0-0-0---3-3-3----0-0-0-0-0-0------------------------------------|

e|--3-3-3---3-3-3----3-3-3-3-3-3----2-2-2-2-3-2-3-2-3-----------------|
B|--3-3-3---3-3-3----3-3-3-3-3-3----3-3-3-3-3-3-3-3-3-----------------|
G|--0-0-0---0-0-0----0-0-0-0-0-0----2-2-2-2-2-2-2-2-2-----------------|
D|--2-2-2---0-0-0----2-2-2-2-2-2----0-0-0-0-0-0-0-0-0-----------------|
A|--2-2-2---2-2-2----3-3-3-3-3-3----0-0-0-0-0-0-0-0-0-----------------|
E|--0-0-0---3-3-3----0-0-0-0-0-0--------------------------------------|


Sometimes you just strum the chords once for the length of the individual strums before
the start of a new verse.

Almost there ...

Sign in to get your own page with links to favourite songs and more. You are just one click away...

Login with Facebook Login with Google