Log in

One click and you are in

Login with Facebook Login with Google

Why sign up and log in

Guitar Tabs Explorer
Machine Gun Kelly guitar tabs for Rehab

Guitar tabs

From seeing him live this is how Kells plays it with a capo, also played the same way from the John
Varvatos instagram live performance

Capo on first fret
e|----------------------------------0-----------------------------|
B|---0—h1------1------1---------1------0------0-------------------|
G|--------2--------2----2------------------------0----------------|
D|---2---------3----------3----------------0---------0------------|
A|------------------------------3---------------------------------|
E|-------------------------------------3--------------------------|

Chords to strum after intro: (some are slightly varied to the full chord, names are just for the chord shapes)
\tAm\t\tF\t\tC\t\tG
e|------0--------------0--------------0--------------0-----------------|
B|------1--------------1--------------1--------------0-----------------|
G|------2--------------2--------------0--------------0-----------------|
D|------2--------------3--------------2--------------0-----------------|
A|------0--------------0--------------3--------------3-----------------|
E|---------------------------------------------------3-----------------|

Listen to the song for the strumming pattern

Other versions of Rehab

RehabChords
Rehab (Ver. 2)Chords
Rehab - introTabs

Almost there ...

Sign in to get your own page with links to favourite songs and more. You are just one click away...

Login with Facebook Login with Google