Log in

One click and you are in

Login with Facebook Login with Google

Why sign up and log in

Guitar Tabs Explorer
Machine Gun Kelly guitar tabs for Rehab

Intro

  • Capo on 2nd
Tuning: Standard (E A D G B E)

Key: A chord diagramB minorBm

Difficulty: Intermediate
Intro:

e|----------------------------------------------------------------------------|
B|-0h1------1---1------------1--------------3---------------------------------|
G|-------------------------------------0--------------------------------------|
D|-2---2--------3----------2-------2------------------------------------------|
A|---------------------------3------------------------------------------------|
E|------------------------------------------3---------------------------------|

e|-----0----------------------------------------------------------------------|
B|-0h1---1------1----------------------------0---3----------------------------|
G|---------2---------0---0h2p0-----------0-------0----------------------------|
D|-2---------2--3--------------2----------------------------------------------|
A|---------------------------------------2------------------------------------|
E|----------------------------------------------------------------------------|

e|----------------0-----------0----------0------------------------------------|
B|-0h1-----1--------1-----1-------3--------1----------------------------------|
G|-------x------------0----------------------0--------------------------------|
D|-2---2--------------------------0-------------------------------------------|
A|------------------------3---------------------------------------------------|
E|----------------------------------------------------------------------------|

e|----------------------------------------------------------------------------|
B|-0h1-1-------1---------3---------1------------------------------------------|
G|-2---2----------------------------------------------------------------------|
D|-2---2------3--------2---------2--------------------------------------------|
A|--------------------3---------0---------------------------------------------|
E|----------------------------------------------------------------------------|


************************************

| x   Dead notee
| h   Hammer-on
| p   Pull-off

************************************

Other versions of Rehab

RehabChords
Rehab (Ver. 2)Chords
RehabTabs

Almost there ...

Sign in to get your own page with links to favourite songs and more. You are just one click away...

Login with Facebook Login with Google