Log in

One click and you are in

Login with Facebook Login with Google

Why sign up and log in

Guitar Tabs Explorer
Machine Gun Kelly guitar tabs for Mind of a stoner

Guitar tabs

e|--5--5--5--5--5--5--5---------2-2-2------0-0-0-0-0----------------------|
B|--5--5--5--5--5--5--5---------2-2-2------0-0-0-0-0----------------------|
G|--7--7--7--7--7--7--7---------3-3-3------1-1-1-1-1----------------------|
D|--7--7--7--7--7--7--7---------4-4-4------2-2-2-2-2----------------------|
A|--5--5--5--5--5--5--5---------4-4-4------2-2-2-2-2----------------------|
E|------------------------------2-2-4------0-0-0-0-0----------------------|


Just this chord sequence through the whole song pretty much
AJ does some arpeggios with the same chords over the top on a PRS electric guitar
 something along these lines but just improvise what you like with it:


e|----------------5------------------------------------------------------|
B|---------5----------5--------------------------------------------------|
G|-------7---7----------7-------------------3-----------1—h2-p1----------|
D|-----7-------7----------7-----7---------4---4-------2------------------|
A|--5------------------------5----------4-----------2--------------------|
E|------------------------------------2----------------------------------|

Other versions of Mind Of A Stoner

Mind of a stonerChords

Almost there ...

Sign in to get your own page with links to favourite songs and more. You are just one click away...

Login with Facebook Login with Google