Log in

One click and you are in

Login with Facebook Login with Google

Why sign up and log in

Guitar Tabs Explorer
Machine Gun Kelly guitar tabs for I think im okay

Intro

Tuning: Standard (E A D G B E)

Difficulty: Novice


Intro:

e|---------------------------------------------------------------------------|
B|------3-------------------------3------------------------------------------|
G|---------4-----4-------------------4-----4---------------------------------|
D|---5--------5-----5--5--5----5--------5-----5--5--5------------------------|
A|---------------------------------------------------------------------------|
E|---------------------------------------------------------------------------|

e|---------------------------------------------------------------------------|
B|------3--------------------------------------------------------------------|
G|---------4-----4----------------5--4-----4---------------------------------|
D|---5--------5-----5--5--5----5--------5-----5--5--5------------------------|
A|---------------------------------------------------------------------------|
E|---------------------------------------------------------------------------|

Other versions of I Think I'm Okay

I think i'm okayChords
I think i'm okay (Ver. 2)Chords
I think i'm okay ukuleleChords

Almost there ...

Sign in to get your own page with links to favourite songs and more. You are just one click away...

Login with Facebook Login with Google