Log in

One click and you are in

Login with Facebook Login with Google

Why sign up and log in

Guitar Tabs Explorer
Machine Gun Kelly guitar tabs for Glass house

Guitar tabs

Tuning: Standard (E A D G B E)

Difficulty: Novice


Intro:

e|---------------------------------------------------------------------------|
B|---------------------------------------------------------------------------|
G|---6-6--6-----9-9--9------13-13--13------8-8--8----------------------------|
D|---------------------------------------------------------------------------|
A|---------------------------------------------------------------------------|
E|-5----5----9-----9-----12------12------7-----7-----------------------------| x5

Verse 1:

e|---------------------------------------------------------------------------|
B|---------------------------------------------------------------------------|
G|---6-6--6-----9-9--9------13-13--13------8-8--8----------------------------|
D|---------------------------------------------------------------------------|
A|---------------------------------------------------------------------------|
E|-5----5----9-----9-----12------12------7-----7-----------------------------| x4


Back to Intro:

e|---------------------------------------------------------------------------|
B|---------------------------------------------------------------------------|
G|---6-6--6-----9-9--9------13-13--13------8-8--8----------------------------|
D|---------------------------------------------------------------------------|
A|---------------------------------------------------------------------------|
E|-5----5----9-----9-----12------12------7-----7-----------------------------| x2


Verse 2:

e|---------------------------------------------------------------------------|
B|---------------------------------------------------------------------------|
G|---6-6--6-----9-9--9------13-13--13------8-8--8----------------------------|
D|---------------------------------------------------------------------------|
A|---------------------------------------------------------------------------|
E|-5----5----9-----9-----12------12------7-----7-----------------------------| x4


Chorus:

e|---------------------------------------------------------------------------|
B|---------------------------------------------------------------------------|
G|---6-6--6-----9-9--9------13-13--13------8-8--8----------------------------|
D|---------------------------------------------------------------------------|
A|---------------------------------------------------------------------------|
E|-5----5----9-----9-----12------12------7-----7-----------------------------| x4


Verse 3:

e|---------------------------------------------------------------------------|
B|---------------------------------------------------------------------------|
G|---6-6--6-----9-9--9------13-13--13------8-8--8----------------------------|
D|---------------------------------------------------------------------------|
A|---------------------------------------------------------------------------|
E|-5----5----9-----9-----12------12------7-----7-----------------------------| x2


Chorus:

e|---------------------------------------------------------------------------|
B|---------------------------------------------------------------------------|
G|---6-6--6-----9-9--9------13-13--13------8-8--8----------------------------|
D|---------------------------------------------------------------------------|
A|---------------------------------------------------------------------------|
E|-5----5----9-----9-----12------12------7-----7-----------------------------| x4


Outro:

e|---------------------------------------------------------------------------|
B|---------------------------------------------------------------------------|
G|---6-6--6-----9-9--9------13-13--13------8-8--8----------------------------|
D|---------------------------------------------------------------------------|
A|---------------------------------------------------------------------------|
E|-5----5----9-----9-----12------12------7-----7-----------------------------| x4

Other versions of Glass House

Glass houseChords

Almost there ...

Sign in to get your own page with links to favourite songs and more. You are just one click away...

Login with Facebook Login with Google