Log in

One click and you are in

Login with Facebook Login with Google

Why sign up and log in

Guitar Tabs Explorer
Machine Gun Kelly bass tabs for Forget me too

Bass tabs

Tuning: Standard (E A D G)


Intro: No Bass:

Verse 1:

G|---------------------------------------------------------------------------|
D|---------------------------------------------------------------------------|
A|-4-4-4-4-4-4-4-4-4-4-4-4-4-4-4-4-------------------------------------------|
E|---------------------------------4-4-4-4-4-4-4-4-4-4-4-4-4-4-4-4-----------|

G|---------------------------------------------------------------------------|
D|---------------------------------1-1-1-1-1-1-1-1---------------------------|
A|---------------------------------------------------------------------------|
E|-1-1-1-1-1-1-1-1-1-1-1-1-1-1-1-1-------------------------------------------|

G|---------------------------------------------------------------------------|
D|---------------------------------------------------------------------------|\
A|-4-4-4-4-4-4-4-4-4-4-4-4-4-4-4-4-------------------------------------------| \
E|---------------------------------4-4-4-4-4-4-4-4-4-4-4-4-4-4-4-4-----------| \x2
                                        /
G|---------------------------------------------------------------------------| /
D|---------------------------------1-1-1-1-1-1-1-1-1-1-1-1-1-1-1-1-----------|/
A|---------------------------------------------------------------------------|
E|-1-1-1-1-1-1-1-1-1-1-1-1-1-1-1-1-------------------------------------------|


Pre-Chorus: x1

G|---------------------------------------------------------------------------|
D|---------------------------------------------------------------------------|
A|-4-4-4-4-4-4-4-4-4-4-4-4-4-4-----------------------------------------------|
E|-----------------------------4-4-4-4-4-4-4-4-4-4-4-4-4-4-------------------|

G|---------------------------------------------------------------------------|
D|-----------------------------1-1-1-1-1-1-1-1-------------------------------|
A|---------------------------------------------------------------------------|
E|-1-1-1-1-1-1-1-1-1-1-1-1-1-1-----------------------------------------------|


Chorus:

G|---------------------------------------------------------------------------|
D|-------------------------------------------------1-1-1-1-1-1-1-1-----------|
A|-4-4-4-4-4-4-4-4-----------------------------------------------------------| x3
E|-----------------4-4-4-4-4-4-4-4-1-1-1-1-1-1-1-1---------------------------|

G|---------------------------------------------------------------------------|
D|---------------------------------------------------------------------------|
A|-4-4-4-4-4-4-4-4-11-11-11-11-11-11-11-11-----------------------------------|
E|---------------------------------------------------------------------------|


Verse 2: x2

G|---------------------------------------------------------------------------|
D|---------------------------------------------------------------------------|
A|-4-4-4-4-4-4-4-4-4-4-4-4-4-4-4-4-------------------------------------------|
E|---------------------------------4-4-4-4-4-4-4-4-4-4-4-4-4-4-4-4-----------|

G|---------------------------------------------------------------------------|
D|---------------------------------1-1-1-1-1-1-1-1-1-1-1-1-1-1-1-1-----------|
A|---------------------------------------------------------------------------|
E|-1-1-1-1-1-1-1-1-1-1-1-1-1-1-1-1-------------------------------------------|


Pre-Chorus: x1

G|---------------------------------------------------------------------------|
D|---------------------------------------------------------------------------|
A|-4-4-4-4-4-4-4-4-4-4-4-4-4-4-----------------------------------------------|
E|-----------------------------4-4-4-4-4-4-4-4-4-4-4-4-4-4-------------------|

G|---------------------------------------------------------------------------|
D|-----------------------------1-1-1-1-1-1-1-1-------------------------------|
A|---------------------------------------------------------------------------|
E|-1-1-1-1-1-1-1-1-1-1-1-1-1-1-----------------------------------------------|


Chorus:

G|---------------------------------------------------------------------------|
D|-------------------------------------------------1-1-1-1-1-1-1-1-----------|
A|-4-4-4-4-4-4-4-4-----------------------------------------------------------| x3
E|-----------------4-4-4-4-4-4-4-4-1-1-1-1-1-1-1-1---------------------------|

G|---------------------------------------------------------------------------|
D|---------------------------------------------------------------------------|
A|-4-4-4-4-4-4-4-4-11-11-11-11-11-11-11-11-----------------------------------|
E|---------------------------------------------------------------------------|


Bridge:

G|---------------------------------------------------------------------------|
D|---------------------------------------------------------------------------|
A|-4/11~--8~--6~-------------------------------------------------------------| x3
E|---------------------------------------------------------------------------|

G|---------------------------------------------------------------------------|
D|---------------------------------------------------------------------------|
A|-4/11~--8-8-8-8------------------------------------------------------------|
E|---------------------------------------------------------------------------|


Chorus:

G|---------------------------------------------------------------------------|
D|-------------------------------------------------1-1-1-1-1-1-1-1-----------|
A|-4-4-4-4-4-4-4-4-----------------------------------------------------------| x3
E|-----------------4-4-4-4-4-4-4-4-1-1-1-1-1-1-1-1---------------------------|

G|---------------------------------------------------------------------------|
D|---------------------------------------------------------------------------|
A|-4-4-4-4-4-4-4-4-11-11-11-11-11-11-11-11-----------------------------------|
E|---------------------------------------------------------------------------|

G|---------------------------------------------------------------------------|
D|-6~------------------------------------------------------------------------|
A|-4~------------------------------------------------------------------------| End on
E|---------------------------------------------------------------------------|


************************************

| / Slide up
| ~ Vibrato

************************************

Almost there ...

Sign in to get your own page with links to favourite songs and more. You are just one click away...

Login with Facebook Login with Google