Log in

One click and you are in

Login with Facebook Login with Google

Why sign up and log in

Guitar Tabs Explorer
Machine Gun Kelly bass tabs for Concert for aliens

Bass tabs

Tuning: Standard (E A D G)


Intro:
  Q = 190 bpm, Time signature = 4/4
  E E E E E E E E  E E E E E E E E  E E E E E E E E  E E E E E E E E
G|-----------------|-----------------|-----------------|-----------------|
D|-----------------|-----------------|-----------------|-----------------| x2
A|-2-2-2-2-2-2-2-2-|-----------------|-----------------|-----------------|
E|-----------------|-0-0-0-0-0-0-0-0-|-2-2-2-2-2-2-2-2-|-4-4-4-4-4-4-4-4-|

Verse:
  E E H.    E E H.    E E H.    E E H.
G|-------------|-------------|-------------|-----------|
D|-------------|-------------|-------------|-----------| x2
A|-2-2-2-------|-4-4-4-------|-------------|-----------|
E|-------------|-------------|-0-0-0-------|-0-0-0-----|


Pre-Chorus:
  Q E E Q Q  Q E E Q Q  Q E E Q Q  Q E E Q Q
G|--------------|--------------|--------------|--------------|
D|--------------|--------------|--------------|--------------|
A|-2--r-2-2--r--|-4--r-4-4--r--|--------------|--------------|
E|--------------|--------------|-0--r-0-0--r--|-0--r-0-0--r--|

  Q E E Q Q  Q E E Q Q  Q E E Q Q   E E E E E E E E
G|--------------|--------------|--------------|--------------------------|
D|--------------|--------------|--------------|--------------------------|
A|--------------|--------------|--------------|--------------------------|
E|-4--r-4-4--r--|-2--r-2-2--r--|-0--r-0-0--r--|-/12-12-12-12-12-12-12-12-|


Chorus:
  E E E E E E E E  E E E E E E E E  E E E E E E E E  E E E E E E E E
G|-----------------|-----------------|-----------------|-----------------|
D|-----------------|-----------------|-----------------|-----------------| x3
A|-2-2-2-2-2-2-2-2-|-----------------|-----------------|-----------------|
E|-----------------|-0-0-0-0-0-0-0-0-|-2-2-2-2-2-2-2-2-|-4-4-4-4-4-4-4-4-|

  E E E E E E E E  E E E E E E E E  E E E E E E E E  E E E E E Q.
G|-----------------|-----------------|-----------------|----------------|
D|-----------------|-----------------|-----------------|----------------|
A|-2-2-2-2-2-2-2-2-|-----------------|-----------------|----------------|
E|-----------------|-0-0-0-0-0-0-0-0-|-2-2-2-2-2-2-2-2-|-r-4-r-4-r-4----|


Break:
  W     W
G|----------|----------|
D|----------|----------|
A|----------|----------|
E|-r--------|-r--------|


Verse:
  E E H.    E E H.    E E H  E E  E E E E E E E E
G|-------------|-------------|--------------|-----------------|
D|-----4-------|-----6-------|-----9--------|-----------------| x2
A|-2-2---------|-4-4---------|-7-7------7-7-|-7-7-7-7-7-7-7-7-|
E|-------------|-------------|--------------|-----------------|


Pre-Chorus:
  Q E E Q Q  Q E E Q Q  Q E E Q Q  Q E E Q Q
G|--------------|--------------|--------------|--------------|
D|--------------|--------------|--------------|--------------|
A|-2--r-2-2--r--|-4--r-4-4--r--|--------------|--------------|
E|--------------|--------------|-0--r-0-0--r--|-0--r-0-0--r--|

  Q E E Q Q  Q E E Q Q  Q E E Q Q   H.   Q
G|--------------|--------------|--------------|-------------|
D|--------------|--------------|--------------|-------------|
A|--------------|--------------|--------------|-------------|
E|-4--r-4-4--r--|-2--r-2-2--r--|-0--r-0-0--r--|-/12------r--|


Chorus:
  E E E E E E E E  E E E E E E E E  E E E E E E E E  E E E E E E E E
G|-----------------|-----------------|-----------------|-----------------|
D|-----------------|-----------------|-----------------|-----------------|
A|-2-2-2-2-2-2-2-2-|-----------------|-----------------|-----------------|
E|-----------------|-0-0-0-0-0-0-0-0-|-2-2-2-2-2-2-2-2-|-4-4-4-4-4-4-4-4-|

  E E E E E E E E  E E E E E E E E  E E E E E E E E  E E E E E E E E
G|-----------------|-----------------|-----------------|---------------------|
D|-----------------|-----------------|-----------------|---------------------|
A|-2-2-2-2-2-2-2-2-|-----------------|-----------------|---------------------|
E|-----------------|-0-0-0-0-0-0-0-0-|-2-2-2-2-2-2-2-2-|-4-4-4-4/11-11-11-11-|

  E E E E E E E E  E E E E E E E E  E E E E E E E E  E E E E E E E E
G|-----------------|-----------------|-----------------|-----------------|
D|-----------------|-----------------|-----------------|-----------------|
A|-2-2-2-2-2-2-2-2-|-----------------|-----------------|-----------------|
E|-----------------|-0-0-0-0-0-0-0-0-|-2-2-2-2-2-2-2-2-|-4-4-4-4-4-4-4-4-|

  E E E E E E E E  E E E E E E E E  E E E E E E E E  E E E E E Q.
G|-----------------|-----------------|-----------------|----------------|
D|-----------------|-----------------|-----------------|----------------|
A|-2-2-2-2-2-2-2-2-|-----------------|-----------------|----------------|
E|-----------------|-0-0-0-0-0-0-0-0-|-2-2-2-2-2-2-2-2-|-r-4-r-4-r-4----|


Bridge:
  E E H.    E E H.    E E H.     E E H.
G|-------------|-------------|--------------|--------------|
D|-----4-------|-----9-------|-----11-------|-------13-----| x2
A|-2-2---------|-7-7---------|-9-9----------|-11-11--------|
E|-------------|-------------|--------------|--------------|


  E E E +E E E E E  E E E +E E E E E  E E E +E E E E E  E E E +E  E E E E
G|-------------------|-------------------|---------------------|---------------------------|
D|-----4-(4)---------|-----9-(9)---------|-----11-(11)---------|-------13-(13)-------------|
A|-2-2-------2-2-2-2-|-7-7-------7-7-7-7-|-9-9---------9-9-9-9-|-11-11---------11-11-11-11-|
E|-------------------|-------------------|---------------------|---------------------------|

  E E E +E E E E E  E E E +E E E E E  E E E +E E E E E  E E E E H
G|-------------------|-------------------|---------------------|--------------------|
D|-----4-(4)---------|-----9-(9)---------|-----11-(11)---------|--------------------|
A|-2-2-------2-2-2-2-|-7-7-------7-7-7-7-|-9-9---------9-9-9-9-|-11-11-11-11-11\----|
E|-------------------|-------------------|---------------------|--------------------|


Solo:
  E E E E E E E E  E E E E E E E E  E E E E E E E E  E E E E E E E E
G|-----------------|-----------------|-----------------|-----------------|
D|-----------------|-----------------|-----------------|-----------------|
A|-2-2-2-2-2-2-2-2-|-----------------|-----------------|-----------------|
E|-----------------|-0-0-0-0-0-0-0-0-|-2-2-2-2-2-2-2-2-|-4-4-4-4-4-4-4-4-|

  E E E E E E E E  E E E E E E E E  E E E E E E E E  E E E E E Q.
G|-----------------|-----------------|-----------------|----------------|
D|-----------------|-----------------|-----------------|----------------|
A|-2-2-2-2-2-2-2-2-|-----------------|-----------------|----------------|
E|-----------------|-0-0-0-0-0-0-0-0-|-2-2-2-2-2-2-2-2-|-r-4-r-4-r-4----|


Pre-Chorus:
  W     W     W     W
G|----------|----------|----------|----------|
D|----------|----------|----------|----------|
A|----------|----------|----------|----------|
E|-r--------|-r--------|-r--------|-r--------|

  W     W     W     W
G|----------|----------|----------|----------|
D|----------|----------|----------|----------|
A|----------|----------|----------|----------|
E|-r--------|-r--------|-r--------|-r--------|


Chorus:
  E E E E E E E E  E E E E E E E E  E E E E E E E E  E E E E E E E E
G|-----------------|-----------------|-----------------|-----------------|
D|-----------------|-----------------|-----------------|-----------------| x3
A|-2-2-2-2-2-2-2-2-|-----------------|-----------------|-----------------|
E|-----------------|-0-0-0-0-0-0-0-0-|-2-2-2-2-2-2-2-2-|-4-4-4-4-4-4-4-4-|

  E E E E E E E E  E E E E E E E E  E E E E E E E E  E E E E E Q.
G|-----------------|-----------------|-----------------|----------------|
D|-----------------|-----------------|-----------------|----------------|
A|-2-2-2-2-2-2-2-2-|-----------------|-----------------|----------------|
E|-----------------|-0-0-0-0-0-0-0-0-|-2-2-2-2-2-2-2-2-|-r-4-r-4-r-4----|


**************************************************

Duration 🏷Legend
| W  Whole note
| H  Half note
| Q  Quarter note
| E  Eighth note
| +  Note tied to previous
| .  Dotted note

Tablature 🏷Legend
| () Note tied to previous
| r  Rest
| \  Slide down
| /  Slide up

**************************************************

Other versions of Concert For Aliens

Concert for aliens (Ver. 2)Bass tabs

Almost there ...

Sign in to get your own page with links to favourite songs and more. You are just one click away...

Login with Facebook Login with Google