Log in

One click and you are in

Login with Facebook Login with Google

Why sign up and log in

Guitar Tabs Explorer
Machine Gun Kelly bass tabs for Concert for aliens (Ver. 2)

Concert For Aliens bass tab - Machine Gun Kelly (Ver. 2)

Machine Gun Kelly bass tabs for Concert for aliens (Ver. 2)

Bass tabs

Tuning: Standard (E A D G)


Intro

G|----------------|----------------|----------------|----------------|
D|----------------|----------------|----------------|----------------|
A|2-2-2-2-2-2-2-2-|----------------|----------------|----------------|
E|----------------|0-0-0-0-0-0-0-0-|2-2-2-2-2-2-2-2-|4-4-4-4-4-4-4-4-|

G|----------------|----------------|----------------|----------------|
D|----------------|----------------|----------------|----------------|
A|2-2-2-2-2-2-2-2-|----------------|----------------|----------------|
E|----------------|0-0-0-0-0-0-0-0-|2-2-2-2-2-2-2-2-|4-4-4-4-4-4-4-4-|

Verse 1 (The headlines say...)
G|----------------|----------------|----------------|----------------|
D|----------------|----------------|----------------|----------------|
A|2-2-2~~~~~~~~~~-|4-4-4~~~~~~~~~~-|----------------|----------------|
E|----------------|----------------|0-0-0~~~~~~~~~~-|0-0-0~~~~~~~~~~-|

G|----------------|----------------|----------------|----------------|
D|----------------|----------------|----------------|----------------|
A|2-2-2~~~~~~~~~~-|4-4-4~~~~~~~~~~-|----------------|----------------|
E|----------------|----------------|0-0-0~~~~~~~~~~-|0-0-0~~~~~~~~~~-|

G|----------------|----------------|----------------|----------------|
D|----------------|----------------|----------------|----------------|
A|2---2-2---------|4---4-4---------|----------------|----------------|
E|----------------|----------------|0---0-0---------|0---0-0---------|

G|----------------|----------------|----------------|----------------|
D|----------------|----------------|----------------|----------------|
A|----------------|----------------|----------------|7-7-7-7-7-7-7-7-|
E|4---4-4---------|2---2-2---------|0---0-0---------|----------------|


Chorus 1 (SOS, I’m callin’...)
G|----------------|----------------|----------------|----------------|
D|----------------|----------------|----------------|----------------|
A|2-2-2-2-2-2-2-2-|----------------|----------------|----------------|
E|----------------|0-0-0-0-0-0-0-0-|2-2-2-2-2-2-2-2-|4-4-4-4-4-4-4-4-|

G|----------------|----------------|----------------|----------------|
D|----------------|----------------|----------------|----------------|
A|2-2-2-2-2-2-2-2-|----------------|----------------|----------------|
E|----------------|0-0-0-0-0-0-0-0-|2-2-2-2-2-2-2-2-|4-4-4-4-4-4-4-4-|

(Upside down...)

G|----------------|----------------|----------------|----------------|
D|----------------|----------------|----------------|----------------|
A|2-2-2-2-2-2-2-2-|----------------|----------------|----------------|
E|----------------|0-0-0-0-0-0-0-0-|2-2-2-2-2-2-2-2-|4-4-4-4-4-4-4-4-|

G|----------------|----------------|----------------|----------------|
D|----------------|----------------|----------------|----------------|
A|2-2-2-2-2-2-2-2-|----------------|----------------|----------------|
E|----------------|0-0-0-0-0-0-0-0-|2-2-2-2-2-2-2-2-|4-4!--4!--4~~~--|
(Shots in time with "roller coaster")

(rest for 1 bar: "Get me off this roller coaster")


Verse 2

(I heard you never...)
G|----------------|----------------|----------------|----------------|
D|----4~~~~~~~~~~-|----6~~~~~~~~~~-|----9~~~~~~~~~~-|----------------|
A|2-2-------------|4-4-------------|7-7-------------|----------------|
E|----------------|----------------|----------------|----------------|

G|----------------|----------------|----------------|----------------|
D|----4~~~~~~~~~~-|----6~~~~~~~~~~-|----9~~~~~~~~~~-|----------------|
A|2-2-------------|4-4-------------|7-7-------------|----------------|
E|----------------|----------------|----------------|----------------|

G|----------------|----------------|----------------|----------------|
D|----------------|----------------|----------------|----------------|
A|2---2-2---------|4---4-4---------|----------------|----------------|
E|----------------|----------------|0---0-0---------|0---0-0---------|

G|----------------|----------------|----------------|----------------|
D|----------------|----------------|----------------|----------------|
A|----------------|----------------|----------------|0!--------------|
E|4---4-4---------|2---2-2---------|0---0-0---------|----------------|


Chorus 2 (SOS, I’m callin’...)
G|----------------|----------------|----------------|----------------|
D|----------------|----------------|----------------|----------------|
A|2-2-2-2-2-2-2-2-|----------------|----------------|----------------|
E|----------------|0-0-0-0-0-0-0-0-|2-2-2-2-2-2-2-2-|4-4-4-4-4-4-4-4-|

G|----------------|----------------|----------------|----------------|
D|----------------|----------------|----------------|----------------|
A|2-2-2-2-2-2-2-2-|----------------|----------------|----------------|
E|----------------|0-0-0-0-0-0-0-0-|2-2-2-2-2-2-2-2-|4-4-4-4-4-4-4-4-|

(Upside down...)

G|----------------|----------------|----------------|----------------|
D|----------------|----------------|----------------|----------------|
A|2-2-2-2-2-2-2-2-|----------------|----------------|----------------|
E|----------------|0-0-0-0-0-0-0-0-|2-2-2-2-2-2-2-2-|4-4-4-4-4-4-4-4-|

G|----------------|----------------|----------------|----------------|
D|----------------|----------------|----------------|----------------|
A|2-2-2-2-2-2-2-2-|----------------|----------------|----------------|
E|----------------|0-0-0-0-0-0-0-0-|2-2-2-2-2-2-2-2-|4-4!--4!--4~~~--|
(Shots in time with "roller coaster")


Bridge (I’m in too deep...)
G|----------------|----------------|----------------|----------------|
D|----4~~~~~~~~~~-|----9~~~~~~~~~~-|----11~~~~~~~~~-|------13~~~~~~~-|
A|2-2-------------|7-7-------------|9-9-------------|11-11-----------|
E|----------------|----------------|----------------|----------------|

G|----------------|----------------|----------------|----------------|
D|----4~~~~~~~~~~-|----9~~~~~~~~~~-|----11~~~~~~~~~-|------13~~~~~~~-|
A|2-2-------------|7-7-------------|9-9-------------|11-11-----------|
E|----------------|----------------|----------------|----------------|

G|----------------|----------------|----------------|----------------|
D|----4~~~~~~~~~~-|----9~~~~~~~~~~-|----11~~~~~~~~~-|------13~~~~~~~-|
A|2-2-------------|7-7-------------|9-9-------------|11-11-----------|
E|----------------|----------------|----------------|----------------|

G|----------------|----------------|----------------|----------------|
D|----4~~~~~~~~~~-|----9~~~~~~~~~~-|----11~~~~~~~~~-|------13~~~~~~~-|
A|2-2-------------|7-7-------------|9-9-------------|11-11-----------|
E|----------------|----------------|----------------|----------------|
|


Guitar Solo
G|----------------|----------------|----------------|----------------|
D|----------------|----------------|----------------|----------------|
A|2-2-2-2-2-2-2-2-|----------------|----------------|----------------|
E|----------------|0-0-0-0-0-0-0-0-|2-2-2-2-2-2-2-2-|4-4-4-4-4-4-4-4-|

G|----------------|----------------|----------------|----------------|
D|----------------|----------------|----------------|----------------|
A|2-2-2-2-2-2-2-2-|----------------|----------------|----------------|
E|----------------|0-0-0-0-0-0-0-0-|2-2-2-2-2-2-2-2-|4-4!--4!--4~~~--|


(Rest during SOS, I’m callin’...)
G|----------------|----------------|----------------|----------------|
D|----------------|----------------|----------------|----------------|
A|----------------|----------------|----------------|----------------|
E|----------------|----------------|----------------|----------------|

G|----------------|----------------|----------------|----------------|
D|----------------|----------------|----------------|----------------|
A|----------------|----------------|----------------|----------------|
E|----------------|----------------|----------------|----------------|

(After drum fill)


Outro (I’m callin’, I’m callin’...)
G|----------------|----------------|----------------|----------------|
D|----------------|----------------|----------------|----------------|
A|2-2-2-2-2-2-2-2-|----------------|----------------|----------------|
E|----------------|0-0-0-0-0-0-0-0-|2-2-2-2-2-2-2-2-|4-4-4-4-4-4-4-4-|

G|----------------|----------------|----------------|----------------|
D|----------------|----------------|----------------|----------------|
A|2-2-2-2-2-2-2-2-|----------------|----------------|----------------|
E|----------------|0-0-0-0-0-0-0-0-|2-2-2-2-2-2-2-2-|4-4!--4!--4~~~--|
(Shots in time with "I'm falling now")

~ means let ring or vibrato
! means "shot" or an "accented note"

Other versions of Concert For Aliens

Concert for aliensBass tabs

Almost there ...

Sign in to get your own page with links to favourite songs and more. You are just one click away...

Login with Facebook Login with Google