Log in

One click and you are in

Login with Facebook Login with Google

Why sign up and log in

Guitar Tabs Explorer
Machine Gun Kelly bass tabs for Body bag

Bass tabs

Tuning: Standard (E A D G)



Intro/Verse 1: No Bass til 0:08 Listen for timing

G|---------------------------------------------------------------------------|
D|---------------------------------------------------------------------------|
A|--4--4-----------------4--4------------------------------------------------|
E|-----------5--5----------------5--5-5-5-6----------------------------------|
G|---------------------------------------------------------------------------|
D|---------------------------------------------------------------------------|
A|--4--4-----------------4--4------------------------------------------------|
E|-----------5--5------------------------------------------------------------|


Chorus:

G|---------------------------------------------------------------------------|
D|---------------------------------------------------------------------------|
A|---------------------4-x16-------------------------------------------------|
E|-----5-x16---0-x16------------4-x16----------------------------------------|

G|---------------------------------------------------------------------------|
D|---------------------------------------------------------------------------|
A|---------------------------------------------------------------------------|
E|-----5-x16---0-x16---4-x16-------------------------------------------------|


Intro/Verse 2:

G|---------------------------------------------------------------------------|
D|---------------------------------------------------------------------------|
A|-----------------4-4-4-4-4-------------4-4-4-4-----------------------------|
E|-5-5-5-5-5-5-5-5-----------5-5-5-5-------------5-5-5-6-6-6-----------------|

G|---------------------------------------------------------------------------|
D|---------------------------------------------------------------------------|
A|--4-4-4-4-----------4-4-4-4------------------------------------------------|
E|-----------5-5-5-5-------------5-5-5-5-6-6-6-------------------------------|



Chorus:

G|---------------------------------------------------------------------------|
D|---------------------------------------------------------------------------|
A|---------------------4-x16-------------------------------------------------|
E|-----5-x16---0-x16------------4-x16----------------------------------------| x3 then

G|---------------------------------------------------------------------------|
D|---------------------------------------------------------------------------|
A|---------------------------------------------------------------------------|
E|-----5-x16---0-x16---4-x16-------------------------------------------------| x1


Bridge:

G|---------------------------------------------------------------------------|
D|---------------------------------------------------------------------------|
A|-9-x3--7-x3--4-x3---2-x3-------4-x3--2-x3--3-x3-3-x3-----------------------|
E|-------------------------2-x3----------------------------------------------|

Nothing til the end of the build up and then its
G|---------------------------------------------------------------------------|
D|---------------------------------------------------------------------------|
A|---------------------------------------------------------------------------|
E|-----------------------------5-x8---0-x8---4-x8----------------------------|


Chorus:

G|---------------------------------------------------------------------------|
D|---------------------------------------------------------------------------|
A|---------------------4-x16-------------------------------------------------|
E|-----5-x16---0-x16------------4-x16----------------------------------------| x2 then

G|---------------------------------------------------------------------------|
D|---------------------------------------------------------------------------|
A|---------------------------------------------------------------------------|
E|-----5-x16---0-x16---4-x16-------------------------------------------------| x1

Almost there ...

Sign in to get your own page with links to favourite songs and more. You are just one click away...

Login with Facebook Login with Google