Log in

One click and you are in

Login with Facebook Login with Google

Why sign up and log in

Guitar Tabs Explorer
Machine Gun Kelly bass tabs for Bloody valentine

Bloody Valentine bass tab - Machine Gun Kelly

Machine Gun Kelly bass tabs for Bloody valentine

Bass tabs

Tuning: Standard (E A D G)

Didn't think this was going to be so repetitive.


Verse:
G|-----------------------------------------------------------------|
D|-----------------------------------------------------------------|
A|-5-5-5-5-5-5-5-5-------------------------------------------------|
E|-----------------5-5-5-5-5-5-5-5---------------------------------|
B|---------------------------------7-7-7-7-7-7-7-7-7-7-7-7-7-7-7-7-|

G|-----------------------------------------------------------------|
D|-----------------------------------------------------------------|
A|---------------------------------------------------------9-9-9-9-|
E|-----------------5-5-5-5-5-5-5-5---------------------------------|
B|-3-3-3-3-3-3-3-3-----------------7-7-7-7-7-7-7-7-7-7-7-7---------|

G|-----------------------------------------------------------------|
D|-----------------------------------------------------------------|
A|-5-5-5-5-5-5-5-5---------------------------------------9---------|
E|-----------------5-5-5-5-5-5-5-5---------------------------------|
B|---------------------------------7-7-7-7-7-7-7-7-7-7-7---7-7-7-7-|

G|-----------------------------------------------------------------|
D|-----------------------------------------------------------------|
A|---------------------------------------------------------9-9-9-9-|
E|-----------------5-5-5-5-5-5-5-5---------------------------------|
B|-3-3-3-3-3-3-3-3-----------------7-7-7-7-7-7-7-7-7-7-7-7---------|

G|-----------------------------------------------------------------|
D|-----------------------------------------------------------------|
A|-5-5-5-5-5-5-5-5-------------------------------------------------|
E|-----------------5-5-5-5-5-5-5-5---------------------------------|
B|---------------------------------7-7-7-7-7-7-7-7-7-7-7-7-7-7-7-7-|

G|-----------------------------------------------------------------|
D|-----------------------------------------------------------------|
A|---------------------------------------------------------9-9-9-9-|
E|-----------------5-5-5-5-5-5-5-5---------------------------------|
B|-3-3-3-3-3-3-3-3-----------------7-7-7-7-7-7-7-7-7-7-7-7---------|

Pre-Chorus:
G|-----------------------------------------------------------------|
D|-----------------------------------------------------------------|
A|-5-5-5-5-5-5-5-5-------------------------------------------------|
E|-----------------5-5-5-5-5-5-5-5---------------------------------|
B|---------------------------------7-7-7-7-7-7-7-7-7-7-7-7-7-7-7-7-|

G|-----------------------------------------------------------------|
D|-----------------------------------------------------------------|
A|---------------------------------------------------------9-9-9-9-|
E|-----------------5-5-5-5-5-5-5-5---------------------------------|
B|-3-3-3-3-3-3-3-3-----------------7-7-7-7-7-7-7-7-7-7-7-7---------|


Chorus:
G|-----------------------------------------------------------------|
D|-----------------------------------------------------------------|
A|-5-5-5-5-5-5-5-5-------------------------------------------------|
E|-----------------5-5-5-5-5-5-5-5---------------------------------|
B|---------------------------------7-7-7-7-7-7-7-7-7-7-7-7-7-7-7-7-|

G|-----------------------------------------------------------------|
D|-----------------------------------------------------------------|
A|---------------------------------------------------------9-9-9-9-|
E|-----------------5-5-5-5-5-5-5-5---------------------------------|
B|-3-3-3-3-3-3-3-3-----------------7-7-7-7-7-7-7-7-7-7-7-7---------|

PAUSE


Verse:(1:02)
G|-----------------------------------------------------------------|
D|-----------------------------------------------------------------|
A|-5-5-5-5-5-5-5-5-------------------------------------------------|
E|-----------------5-5-5-5-5-5-5-5---------------------------------|
B|---------------------------------7-7-7-7-7-7-7-7-7-7-7-7-7-7-7-7-|\
                                   2
G|-----------------------------------------------------------------|/
D|-----------------------------------------------------------------|
A|---------------------------------------------------------9-9-9-9-|
E|-----------------5-5-5-5-5-5-5-5---------------------------------|
B|-3-3-3-3-3-3-3-3-----------------7-7-7-7-7-7-7-7-7-7-7-7---------|


Pre-Chorus:
G|-----------------------------------------------------------------|
D|-----------------------------------------------------------------|
A|-5-5-5-5-5-5-5-5-------------------------------------------------|
E|-----------------5-5-5-5-5-5-5-5---------------------------------|
B|---------------------------------7-7-7-7-7-7-7-7-7-7-7-7-7-7-7-7-|

G|-----------------------------------------------------------------|
D|-----------------------------------------------------------------|
A|---------------------------------------------------------9-9-9-9-|
E|-----------------5-5-5-5-5-5-5-5---------------------------------|
B|-3-3-3-3-3-3-3-3-----------------7-7-7-7-7-7-7-7-7-7-7-7---------|


Chorus:
G|-----------------------------------------------------------------|
D|-----------------------------------------------------------------|
A|-5-5-5-5-5-5-5-5-------------------------------------------------|
E|-----------------5-5-5-5-5-5-5-5---------------------------------|
B|---------------------------------7-7-7-7-7-7-7-7-7-7-7-7-7-7-7-7-|\
                                   2
G|-----------------------------------------------------------------|/
D|-----------------------------------------------------------------|
A|---------------------------------------------------------9-9-9-9-|
E|-----------------5-5-5-5-5-5-5-5---------------------------------|
B|-3-3-3-3-3-3-3-3-----------------7-7-7-7-7-7-7-7-7-7-7-7---------|

PAUSE
THERE'S SOME KIND OF BASS HERE BUT IT'S SUPER FAINT


Pre-Chorus:(2:31)
G|------------------------------------------------------------------------|
D|------------------------------------------------------------------------|
A|--------5-5-5-5-5-5-5-5-------------------------------------------------|
E|------------------------5-5-5-5-5-5-5-5---------------------------------|
B|-/--------------------------------------7-7-7-7-7-7-7-7-7-7-7-7-7-7-7-7-|

G|-----------------------------------------------------------------|
D|-----------------------------------------------------------------|
A|---------------------------------------------------------9-------|
E|-----------------5-5-5-5-5-5-5-5---------------------------------|
B|-3-3-3-3-3-3-3-3-----------------7-7-7-7-7-7-7-7-7-7-7-7---------|


Chorus:
G|-----------------------------------------------------------------|
D|-----------------------------------------------------------------|
A|-5-5-5-5-5-5-5-5-------------------------------------------------|
E|-----------------5-5-5-5-5-5-5-5---------------------------------|
B|---------------------------------7-7-7-7-7-7-7-7-7-7-7-7-7-7-7-7-|\
                                   X3
G|-----------------------------------------------------------------|/
D|-----------------------------------------------------------------|
A|---------------------------------------------------------9-9-9-9-|
E|-----------------5-5-5-5-5-5-5-5---------------------------------|
B|-3-3-3-3-3-3-3-3-----------------7-7-7-7-7-7-7-7-7-7-7-7---------|


************************************

| / Slide up

************************************

Almost there ...

Sign in to get your own page with links to favourite songs and more. You are just one click away...

Login with Facebook Login with Google