Log in

One click and you are in

Login with Facebook Login with Google

Why sign up and log in

Guitar Tabs Explorer
Machinae Supremacy tabs for Player one

Guitar tabs

Title: Player One
Album: Deus Ex Machinae
Genre: Geek-rock :-)
Web: http://www.machinaesupremacy.com

This song is available for free to download at:

http://www.machinaesupremacy.com/discography.html

Tab: Attila Magyar
Web: http://mogyi925.extra.hu
Intro

Melody:
A chord diagramE MajorE|---------------9-7------------------------------9-7--------------7-
A chord diagramBB|-10--7---7-9-10------9---10-9-7-9-10--7---7-9-10------9---9-10-10--
A chord diagramG+G|-------------------------------------------------------------------
A chord diagramD MajorD|-------------------------------------------------------------------
A chord diagramA augmentedA|-------------------------------------------------------------------
A chord diagramE MajorE|-------------------------------------------------------------------
  A chord diagramF# minorF#m             A chord diagramE MajorE                A chord diagramB minorBm                  A chord diagramC#C#

A chord diagramE MajorE|---------------9-7------------------------------9-7------9-9-9-10p9---
A chord diagramBB|-10--7---7-9-10------9---10-9-7-9-10--7---7-9-10-----9----------------
A chord diagramG+G|----------------------------------------------------------------------
A chord diagramD MajorD|----------------------------------------------------------------------
A chord diagramA augmentedA|----------------------------------------------------------------------
A chord diagramE MajorE|----------------------------------------------------------------------
  A chord diagramF# minorF#m             A chord diagramE MajorE                A chord diagramB minorBm                     A chord diagramC#C#

Interlude:
E------------------
B------------------
G------------------
D------------------
A------------------
E-2-0h2--0h2--0h2-- [x4]

Verse1:
E-----------------------------------------------------------------
B-----------------------------------------------------------------
G-----------------------------------------------------------------
D-----------------0h2-0h2-0h2-0h2---------------------------------
A---------------------------------4h5-4h5-4h5-4h5-2h4-2h4-2h4-2h4-
E-0h2-0h2-0h2-0h2-------------------------------------------------
A chord diagramA augmentedA misfit... No religion...     ...weary of...  So tired...


Verse2:
E-----------------------------------------------------------------
B-----------------------------------------------------------------
G-----------------------------------------------------------------
D-----------------------------------------------------------------
A-----------------------------------------------------------------
E-0h2-0h2-0h2-0h2-2h4-2h4-2h4-2h4-4h5-4h5-4h5-4h5-7h9-7h9-7h9-7h9-
...grey and... ...evil...   ...is hidden...     Unseen or...


Verse3:
E------------------------------------------------------------
B------------------------------------------------------------
G------------------------------------------------------------
D-4-4--4-4-4-4-4-4-4--4-4-4-4-4-2-2--2-2-2-2-2-2-2--2-2-2-2-2-
A-4-4--4-4-4-4-4-4-4--4-4-4-4-4-2-2--2-2-2-2-2-2-2--2-2-2-2-2-
E-2-2--2-2-2-2-2-2-2--2-2-2-2-2-0-0--0-0-0-0-0-0-0--0-0-0-0-0-
  A chord diagramF# minorF#m                           A chord diagramE MajorE
  Welcome...          Where you always get...

E-------------------------------------------------------------
B-------------------------------------------------------------
G-7-7--7-7-7-7-7-7-7--7-7-7-7-7-6-6--6-6-6--------------------
D-7-7--7-7-7-7-7-7-7--7-7-7-7-7-6-6--6-6-6--------------------
A-5-5--5-5-5-5-5-5-5--5-5-5-5-5-4-4--4-4-4--4-4-5-4-2-4-2-0---
E-----------------------------------------------------------4-
  A chord diagramD MajorD                             A chord diagramC#C#
..loose a...           But you win if...


Verse4:
E-------------------------------------------------------------
B-------------------------------------------------------------
G-------------------------------------------------------------
D-4-4--4-4-4-4-4-4-4--4-4-4-4-4/6-6--6-6-6-6-6-6-6--6-6-6-6-6/
A-4-4--4-4-4-4-4-4-4--4-4-4-4-4/6-6--6-6-6-6-6-6-6--6-6-6-6-6/
E-2-2--2-2-2-2-2-2-2--2-2-2-2-2/4-4--4-4-4-4-4-4-4--4-4-4-4-4/
  A chord diagramF# minorF#m                           A chord diagramG# minorG#m
Face up and...   ~~   You ever knew since...


E-------------------------------------------------------------
B-------------------------------------------------------------
G-------------------------------6-6--6-6-6--------------------
D-7-7--7-7-7-7-7-7-7--7-7-7-7-7-6-6--6-6-6--------------0-2-4-
A-7-7--7-7-7-7-7-7-7--7-7-7-7-7-4-4--4-4-4--4-4-5-4-2-4-5-----
E-5-5--5-5-5-5-5-5-5--5-5-5-5-5-------------------------------
  A chord diagramA augmentedA                             A chord diagramC#C#
Always...             When it's all inside...


Chorus:
A chord diagramF# minorF#m              A chord diagramE MajorE
I wanna' play... die
          A chord diagramB minorBm
Don't... why
                A chord diagramC#C#
...towards the sky
In a world.../Now I feel...

    A chord diagramF# minorF#m            A chord diagramE MajorE
And I keep... for more
             A chord diagramB minorBm
...until I score
           A chord diagramC#C#
...than before
In a...

Melody

Verse1

Verse4

Chorus


[Solo]


Outro:
A chord diagramF# minorF#m     A chord diagramE MajorE          A chord diagramB minorBm
Tomorrow I... be here,
    A chord diagramC#C#    -    A chord diagramD MajorD
and I won't... only one.
A chord diagramF# minorF#m           A chord diagramE MajorE       A chord diagramB minorBm
Our... will always adhere
A chord diagramC#C#    -    A chord diagramD MajorD
to a... beyond this one


Outro
Interlude

Almost there ...

Sign in to get your own page with links to favourite songs and more. You are just one click away...

Login with Facebook Login with Google