Log in

One click and you are in

Login with Facebook Login with Google

Why sign up and log in

Guitar Tabs Explorer
Amy MacDonald bass tabs for This pretty face

Bass tabs

Intro:
G|----------------------------------------------------------------------
D|-3-----5-7-----6-5--------------3-3-3-3-5-7-7-7-7-6-5-5-5-5---------2-
A|-----------------------3-3-3-3------------------------------3-3-33-5--
E|----------------------------------------------------------------------
Verse 1:                       (Play This x3)
G------------------------------------------
D|-3-3-3-3-5-7-7-7-7-6-5-5-5-5-----------2-
A|------------------------------3-3-33-5---
E|-----------------------------------------

G------------------------------------------------
D|-3-3-3-3-5-7-7-7-7-6-5-5-5-5-------------------
A|------------------------------3-3-3-3-3-3-310--
E|---------------------------------------------3-


Chorus 1:                                              (Play this x 2)
G|-------------------------------------------------------------------------
D|-------------------------------------------------------------------------
A|------------------------------------------------------2-3-3-3-3-3-3-310--
E|-1-1-1-1-1-1-1013--5-0-5-0-5-0-5-054-3-3-3-3-3-3-33-5------------------3-


G|-------------------------------------------------------------------------
D|-----------------------------------------------------------------------2-
A|-----------------------------------------------------2-3-3-3-3-3-3-33-5--
E|-1-1-1-1-1-1-1013--5-0-5-0-5-0-5-054-3-3-3-3-3-3-33-5--------------------


Verse 2:                                             (Play This x 2)
G|----------------------------------------------------------------------
D|-3-3-3-3-3-3-3-35-7-7-7-7-7-7-7-76-5-5-5-5-5-5-5-5------------------2-
A|---------------------------------------------------3-3-3-3-3-3-33-5---
E|----------------------------------------------------------------------


Chorus 2:                                               (Play This x3)
G|------------------------------------------------------------------------
D|-3---3---3---3-3-5-7---7---7---7-7-6-5---5---5---5-5------------------2-
A|---3---3---3--3------7---7---7--7------5---5---5--5-5-3-3-3-3-3-3-33-5--
E|------------------------------------------------------------------------

G|------------------------------------------------------------------------
D|-3---3---3---3-3-5-7---7---7---7-7-6-5---5---5---5-5------------------3-
A|---3---3---3--3------7---7---7--7------5---5---5--5-5---3---33-3-3------
E|------------------------------------------------------------------------

Almost there ...

Sign in to get your own page with links to favourite songs and more. You are just one click away...

Login with Facebook Login with Google