Log in

One click and you are in

Login with Facebook Login with Google

Why sign up and log in

Guitar Tabs Explorer
Amy MacDonald bass tabs for This is the life

Bass tabs

Artist - Amy MacDonald
Song - This is the Life
Album - This Is The Life
Track - 2
Bassist - Jamie Sefton
INTRO/FIRST VERSE
G---6-4------------|
D-------4----7-----|
A-4----------------|
E---------45---5-5-|

G------------------|
D------------------|
A--------7-7-9-----|
E-/0-0/7-----------|

G-----------------|
D---------6--6----|
A-------6------9/-|
E-4---4-----------|

REPEAT ABOVE TWICE MORE


CHORUS
G-------------------------|
D-------------------------|
A-4-----4-----------------|
E----4-----44-5--0--5--00-|

G------------------------|
D------------------------|
A-7-----7-----11--11-7-6-|
E----7-----7----11-------|

G-------------------------|
D-------------------------|
A-4-----4-----------------|
E----4-----44-5--0--5--00-|

G-------------------------|
D-------------------------|
A-7-----7-----11--11------|
E----7-----77---11--11-11-|

POST-CHORUS
G---6-4------------|
D-------4----------|
A-4----------------|
E---------45-5-5-5-|

G------------------|
D------------------|
A--------7-7-9-----|
E-/0-0/7-----------|

G---------------|
D---------------|
A----6----------|
E-4-----4-4---4-|

VERSE
G---6-4------------|
D-------4----7-----|
A-4----------------|
E---------45---5-5-|

G--------------|
D----2---------|
A--------------|
E-/0---0--0-2--|

G--------------|
D-----6--------|
A---6---6--6-5-|
E-4------------|

G---6-4------------|
D-------4----7-----|
A-4----------------|
E---------45---5-5-|

G--------------|
D--------------|
A--------------|
E-/0-0-0--0-2--|

G-------------|
D-----6-------|
A---6---6--5--|
E-4-----------|


CHORUS X3

BASS AND VOCAL BIT
G---------------------------|
D----6-----6-7--------------|
A-4-----4-------------------|
E--------------5--0--5--0-2-|

G-----------------------|
D-----------------------|
A-7-----7------11--11---|
E----7-----7-----11--11-|

REPEAT ABOVE


CHORUS
G-------------------------|
D-------------------------|
A-4-----4-----------------|
E----4-----44-5--0--5--00-|

G----------------------|
D----------------------|
A-7-----7-----11--11-6-|
E----7-----7----11-----|

G-------------------------|
D-------------------------|
A-4-----4-----------------|
E----4-----44-5--0--5--00-|

G-------------------------|
D-------------------------|
A-7-----7-----11~~~~------|
E----7-----77-------------|


ENDING
G---6-4------------|
D-------4----------|
A-4----------7-----|
E---------75---5-5-|

G------------------------------|
D------------------------------|
A-7-----7-----11--11-7-6-4~~~~-|

Other versions of This Is The Life

This is the life (Ver. 2)Bass tabs
This is the life (Ver. 3)Bass tabs

Almost there ...

Sign in to get your own page with links to favourite songs and more. You are just one click away...

Login with Facebook Login with Google