Log in

One click and you are in

Login with Facebook Login with Google

Why sign up and log in

Guitar Tabs Explorer
Amy MacDonald bass tabs for This is the life (Ver. 3)

This Is The Life bass tab by Amy MacDonald (Ver. 3)

Amy MacDonald bass tabs for This is the life (Ver. 3)

Bass tabs

Amy Macdonald - This Is The Life
4/4 - 184 BPM
Standard tuning (EADG)

L - Tied note
Intro

G|-----------------|-----------------|---------6-------|-4---------------|
D|-----------------|-----------------|-----------------|-------6---------|
A|-----------------|-----------------|-4---------------|-----------------|
E|-----------------|-----------------|-----------------|-------------4---|
   1 + 2 + 3 + 4 +   1 + 2 + 3 + 4 +   1 + 2 + 3 + 4 +   1 + 2 + 3 + 4 +

G|-----------------|-----------------|-----------------|-----------------|
D|---------7-------|-----------------|-----------------|-------6---6-----|
A|-----------------|-----------------|-----------------|-7---------------|
E|-5---------------|-5-----5-----2---|-0-------0---7---|-----------------|
   1 + 2 + 3 + 4 +   1 + 2 + 3 + 4 +   1 + 2 + 3 + 4 +   1 + 2 + 3 + 4 +

G|-----------------|-----------------|
D|-----------------|-6-----6---6-----|
A|---------6-------|-----------------|
E|-4---------------|-----------------|
   1 + 2 + 3 + 4 +   1 + 2 + 3 + 4 +


Verse 1

G|---------6-------|-4---------------|-----------------|-----------------|
D|-----------------|-------6---------|---------7-------|-----------------|
A|-4---------------|-----------------|-----------------|-----------------|
E|-----------------|-------------4---|-5---------------|-5-----5-----2---|
   1 + 2 + 3 + 4 +   1 + 2 + 3 + 4 +   1 + 2 + 3 + 4 +   1 + 2 + 3 + 4 +

G|-----------------|-----------------|-----------------|-----------------|
D|-----------------|-------6---6-----|-----------------|-6---------------|
A|-----------------|-7---------------|---------6-------|-------6---------|
E|-0-------0---7---|-----------------|-4---------------|-------------7---|
   1 + 2 + 3 + 4 +   1 + 2 + 3 + 4 +   1 + 2 + 3 + 4 +   1 + 2 + 3 + 4 +

G|---------6-------|-4---------------|-----------------|-----------------|
D|-----------------|-------6---------|---------7-------|-----------------|
A|-4---------------|-----------------|-----------------|-----------------|
E|-----------------|-------------4---|-5---------------|-5-----5-----2---|
   1 + 2 + 3 + 4 +   1 + 2 + 3 + 4 +   1 + 2 + 3 + 4 +   1 + 2 + 3 + 4 +

G|-----------------|-----------------|-----------------|-----------------|
D|-----------------|-------6---6-----|-----------------|-6---------------|
A|-----------------|-7---------------|---------6-------|-------6---------|
E|-0-------0---7---|-----------------|-4---------------|-------------7---|
   1 + 2 + 3 + 4 +   1 + 2 + 3 + 4 +   1 + 2 + 3 + 4 +   1 + 2 + 3 + 4 +


Chorus

G|-----------------|-----------------|-----------------|-----------------|
D|-----------------|-----------------|-----------------|-----------------|
A|-4---------------|-4---------------|-----------------|-----------------|
E|---------4-------|-------4-----4---|-5-------0-------|-5-----0-----0---|
   1 + 2 + 3 + 4 +   1 + 2 + 3 + 4 +   1 + 2 + 3 + 4 +   1 + 2 + 3 + 4 +

G|-----------------|-----------------|-----------------|-----------------|
D|-----------------|-----------------|-6---------------|-6---------------|
A|-7---------------|-7---------------|---------6-------|-------6-----6---|
E|---------7-------|-------7-----7---|-----------------|-----------------|
   1 + 2 + 3 + 4 +   1 + 2 + 3 + 4 +   1 + 2 + 3 + 4 +   1 + 2 + 3 + 4 +

G|-----------------|-----------------|-----------------|-----------------|
D|-----------------|-----------------|-----------------|-----------------|
A|-4---------------|-4---------------|-----------------|-----------------|
E|---------4-------|-------4-----4---|-5-------0-------|-5-----0-----0---|
   1 + 2 + 3 + 4 +   1 + 2 + 3 + 4 +   1 + 2 + 3 + 4 +   1 + 2 + 3 + 4 +

G|-----------------|-----------------|-----------------|-----------------|
D|-----------------|-----------------|-6---------------|-6---------------|
A|-7---------------|-7---------------|---------6-------|-------6-----6---|
E|---------7-------|-------7-----7---|-----------------|-----------------|
   1 + 2 + 3 + 4 +   1 + 2 + 3 + 4 +   1 + 2 + 3 + 4 +   1 + 2 + 3 + 4 +


Bridge

G|---------6-------|-4---------------|-----------------|-----------------|
D|-----------------|-------6---------|---------7-------|-----------------|
A|-4---------------|-----------------|-----------------|-----------------|
E|-----------------|-------------4---|-5---------------|-5-----5-----2---|
   1 + 2 + 3 + 4 +   1 + 2 + 3 + 4 +   1 + 2 + 3 + 4 +   1 + 2 + 3 + 4 +

G|-----------------|-----------------|-----------------|-----------------|
D|-----------------|-------6---6-----|-----------------|-6---------------|
A|-----------------|-7---------------|---------6-------|-------6---------|
E|-0-------0---7---|-----------------|-4---------------|-------------7---|
   1 + 2 + 3 + 4 +   1 + 2 + 3 + 4 +   1 + 2 + 3 + 4 +   1 + 2 + 3 + 4 +


Verse 2

G|---------6-------|-4---------------|-----------------|-----------------|
D|-----------------|-------6---------|---------7-------|-----------------|
A|-4---------------|-----------------|-----------------|-----------------|
E|-----------------|-------------4---|-5---------------|-5-----5-----2---|
   1 + 2 + 3 + 4 +   1 + 2 + 3 + 4 +   1 + 2 + 3 + 4 +   1 + 2 + 3 + 4 +

G|-----------------|-----------------|-----------------|-----------------|
D|-----------------|-------6---6-----|-----------------|-6---------------|
A|-----------------|-7---------------|---------6-------|-------6---------|
E|-0-------0---7---|-----------------|-4---------------|-------------7---|
   1 + 2 + 3 + 4 +   1 + 2 + 3 + 4 +   1 + 2 + 3 + 4 +   1 + 2 + 3 + 4 +

G|---------6-------|-4---------------|-----------------|-----------------|
D|-----------------|-------6---------|---------7-------|-----------------|
A|-4---------------|-----------------|-----------------|-----------------|
E|-----------------|-------------4---|-5---------------|-5-----5-----2---|
   1 + 2 + 3 + 4 +   1 + 2 + 3 + 4 +   1 + 2 + 3 + 4 +   1 + 2 + 3 + 4 +

G|-----------------|-----------------|-----------------|-----------------|
D|-----------------|-------6---6-----|-----------------|-6---------------|
A|-----------------|-7---------------|---------6-------|-------6---------|
E|-0-------0---7---|-----------------|-4---------------|-------------7---|
   1 + 2 + 3 + 4 +   1 + 2 + 3 + 4 +   1 + 2 + 3 + 4 +   1 + 2 + 3 + 4 +


Chorus

G|-----------------|-----------------|-----------------|-----------------|
D|-----------------|-----------------|-----------------|-----------------|
A|-4---------------|-4---------------|-----------------|-----------------|
E|---------4-------|-------4-----4---|-5-------0-------|-5-----0-----0---|
   1 + 2 + 3 + 4 +   1 + 2 + 3 + 4 +   1 + 2 + 3 + 4 +   1 + 2 + 3 + 4 +

G|-----------------|-----------------|-----------------|-----------------|
D|-----------------|-----------------|-6---------------|-6---------------|
A|-7---------------|-7---------------|---------6-------|-------6-----6---|
E|---------7-------|-------7-----7---|-----------------|-----------------|
   1 + 2 + 3 + 4 +   1 + 2 + 3 + 4 +   1 + 2 + 3 + 4 +   1 + 2 + 3 + 4 +

G|-----------------|-----------------|-----------------|-----------------|
D|-----------------|-----------------|-----------------|-----------------|
A|-4---------------|-4---------------|-----------------|-----------------|
E|---------4-------|-------4-----4---|-5-------0-------|-5-----0-----0---|
   1 + 2 + 3 + 4 +   1 + 2 + 3 + 4 +   1 + 2 + 3 + 4 +   1 + 2 + 3 + 4 +

G|-----------------|-----------------|-----------------|-----------------|
D|-----------------|-----------------|-6---------------|-6---------------|
A|-7---------------|-7---------------|---------6-------|-------6-----6---|
E|---------7-------|-------7-----7---|-----------------|-----------------|
   1 + 2 + 3 + 4 +   1 + 2 + 3 + 4 +   1 + 2 + 3 + 4 +   1 + 2 + 3 + 4 +


Bridge

G|-----------------|-----------------|-----------------|-----------------|
D|-----------------|-----------------|-----------------|-----------------|
A|-4---------------|-4---------------|-----------------|-----------------|
E|---------4-------|-------4-----4---|-5-------0-------|-5-----0-----0---|
   1 + 2 + 3 + 4 +   1 + 2 + 3 + 4 +   1 + 2 + 3 + 4 +   1 + 2 + 3 + 4 +

G|-----------------|-----------------|-----------------|-----------------|
D|-----------------|-----------------|-6---------------|-6---------------|
A|-7---------------|-7---------------|---------6-------|-------6-----6---|
E|---------7-------|-------7-----7---|-----------------|-----------------|
   1 + 2 + 3 + 4 +   1 + 2 + 3 + 4 +   1 + 2 + 3 + 4 +   1 + 2 + 3 + 4 +

G|-----------------|-----------------|-----------------|-----------------|
D|-----------------|-----------------|-----------------|-----------------|
A|-4---------------|-4---------------|-----------------|-----------------|
E|---------4-------|-------4-----4---|-5-------0-------|-5-----0-----0---|
   1 + 2 + 3 + 4 +   1 + 2 + 3 + 4 +   1 + 2 + 3 + 4 +   1 + 2 + 3 + 4 +

G|-----------------|-----------------|-----------------|-----------------|
D|-----------------|-----------------|-6---------------|-6---------------|
A|-7---------------|-7---------------|---------6-------|-------6-----6---|
E|---------7-------|-------7-----7---|-----------------|-----------------|
   1 + 2 + 3 + 4 +   1 + 2 + 3 + 4 +   1 + 2 + 3 + 4 +   1 + 2 + 3 + 4 +

G|-----------------|-----------------|-----------------|-----------------|
D|---------6-------|---------6-------|-----------------|-----------------|
A|-4---------------|-4---------------|-----------------|-----------------|
E|-----------------|-------------4---|-5-------0-------|-5-------0---7---|
   1 + 2 + 3 + 4 +   1 + 2 + 3 + 4 +   1 + 2 + 3 + 4 +   1 + 2 + 3 + 4 +

G|-----------------|-----------------|-----------------|-----------------|
D|-----------------|-----------------|-6---------------|-6---------------|
A|-7---------------|-7---------------|---------6-------|-------6-----6---|
E|---------7-------|---------7-------|-----------------|-----------------|
   1 + 2 + 3 + 4 +   1 + 2 + 3 + 4 +   1 + 2 + 3 + 4 +   1 + 2 + 3 + 4 +


Chorus

G|-----------------|-----------------|-----------------|-----------------|
D|---------6-------|---------6-------|-----------------|-----------------|
A|-4---------------|-4---------------|-----------------|-----------------|
E|-----------------|-------------4---|-5-------0-------|-5-------0---7---|
   1 + 2 + 3 + 4 +   1 + 2 + 3 + 4 +   1 + 2 + 3 + 4 +   1 + 2 + 3 + 4 +

G|-----------------|-----------------|-----------------|-----------------|
D|-----------------|-----------------|-6---------------|-6---------------|
A|-7---------------|-7---------------|---------6-------|-------6-----6---|
E|---------7-------|---------7-------|-----------------|-----------------|
   1 + 2 + 3 + 4 +   1 + 2 + 3 + 4 +   1 + 2 + 3 + 4 +   1 + 2 + 3 + 4 +

G|-----------------|-----------------|-----------------|-----------------|
D|---------6-------|---------6-------|-----------------|-----------------|
A|-4---------------|-4---------------|-----------------|-----------------|
E|-----------------|-------------4---|-5-------0-------|-5-------0---7---|
   1 + 2 + 3 + 4 +   1 + 2 + 3 + 4 +   1 + 2 + 3 + 4 +   1 + 2 + 3 + 4 +

G|-----------------|-----------------|-----------------|-----------------|
D|-----------------|-----------------|-6---------------|-6---------------|
A|-7---------------|-7---------------|---------6-------|-------6-----6---|
E|---------7-------|---------7-------|-----------------|-----------------|
   1 + 2 + 3 + 4 +   1 + 2 + 3 + 4 +   1 + 2 + 3 + 4 +   1 + 2 + 3 + 4 +

G|-----------------|-----------------|-----------------|-----------------|
D|---------6-------|---------6-------|-----------------|-----------------|
A|-4---------------|-4---------------|-----------------|-----------------|
E|-----------------|-------------4---|-5-------0-------|-5-------0---7---|
   1 + 2 + 3 + 4 +   1 + 2 + 3 + 4 +   1 + 2 + 3 + 4 +   1 + 2 + 3 + 4 +

G|-----------------|-----------------|-----------------|-----------------|
D|-----------------|-----------------|-6---------------|-L---------------|
A|-7---------------|-7---------------|-----------------|-----------------|
E|---------7-------|---------7-------|-----------------|-----------------|
   1 + 2 + 3 + 4 +   1 + 2 + 3 + 4 +   1 + 2 + 3 + 4 +   1 + 2 + 3 + 4 +

G|-----------------|
D|-L---------------|
A|-----------------|
E|-----------------|
   1 + 2 + 3 + 4 +


Outro

G|---------6-------|-4---------------|-----------------|-----------------|
D|-----------------|-------6---------|---------7-------|-----------------|
A|-4---------------|-----------------|-----------------|-----------------|
E|-----------------|-------------4---|-5---------------|-5-----5-----2---|
   1 + 2 + 3 + 4 +   1 + 2 + 3 + 4 +   1 + 2 + 3 + 4 +   1 + 2 + 3 + 4 +

G|-----------------|-----------------|-----------------|-----------------|
D|-----------------|-------6---6-----|-----------------|-6---------------|
A|-----------------|-7---------------|---------6-------|-------6---------|
E|-0-------0---7---|-----------------|-4---------------|-------------7---|
   1 + 2 + 3 + 4 +   1 + 2 + 3 + 4 +   1 + 2 + 3 + 4 +   1 + 2 + 3 + 4 +

G|-----------------|-----------------|
D|-----------------|-----------------|
A|-4---------------|-L---------------|
E|-----------------|-----------------|
   1 + 2 + 3 + 4 +   1 + 2 + 3 + 4 +

Other versions of This Is The Life

This is the lifeBass tabs
This is the life (Ver. 2)Bass tabs

Almost there ...

Sign in to get your own page with links to favourite songs and more. You are just one click away...

Login with Facebook Login with Google