Log in

One click and you are in

Login with Facebook Login with Google

Why sign up and log in

Guitar Tabs Explorer
Amy MacDonald bass tabs for This is the life (Ver. 2)

This Is The Life bass tab by Amy MacDonald (Ver. 2)

Amy MacDonald bass tabs for This is the life (Ver. 2)

Bass tabs

Intro:
G|--------------|-----6--4------------------------------------------|
D|----MUFFLED---|----------6------7-------------------4-6-----6-----|
A|-GUITAR START-|-4------------------------------7--7------6----7-6-|
E|--------------|------------4-5----5--5---0--0---------------------|
Verse 1:
G|-----6--4------------------------------------------|
D|----------6--------------------------4-6-----6-----|
A|-4------------------------7--7--7--7------6----7-6-|
E|------------4-5--5--5--5---------------------------|


Verse 2:
G|-----6--4------------------------------------------|
D|----------6------7-------------------4-6-----6-----|
A|-4------------------------------7--7------6----7-6-|
E|------------4-5----5--5---0--0---------------------|


Chorus 1:
G|-------------------------------------------------------|
D|-------------------------------------------6-----6-----|
A|-4-----4----------------------7-----7---------6----7-6-|
E|----4-----4-4---5--0--5--0-5-----7----7-7--------------|

G|------------------------------------------------------|
D|------------------------------------------6-----6-----|
A|-4-----4---4----------------7-----7---7------6----7-6-|
E|----4-----4---5--0--5--0-5-----7-----7----------------|

Interlude:
G|----6--4----------------------------------------------|
D|---------6--------------------------------------------|
A|-4------------------------------------------6---------|
E|-----------4-5--5--5--5---0--0--0--0-2---4-----4--4-4-|

Verse 3:                            (Play This Bit x2)
G|-----6--4------------------------------------------|
D|----------6------7--7--7-------------4-6-----6-----|
A|-4------------------------7--7--7--7------6----7-6-|
E|------------4-5------------------------------------|


Chorus 2:                           (Play This Bit x2)
G|---------------------------------------------------|
D|----------------------------------------6-----6----|
A|-4-----4-------------------7-----7---------6-----6-|
E|----4-----4---5--0--5--0------7-----7--------------|

Interlude:                             (Play This Bit x2)
G|------------------------------------------------------|
D|------------------------------------------6-----6-----|
A|-4-----4---4----------------7-----7---7------6----7-6-|
E|----4-----4---5--0--5--0-5-----7-----7----------------|


Chorus 3:                              (Play This Bit x3)
G|------------------------------------------------------|
D|------------------------------------------6-----6-----|
A|-4-----4---4----------------7-----7---7------6----7-6-|
E|----4-----4---5--0--5--0-5-----7-----7----------------|

                                           (Break)
G|--------------------------------------------|
D|------------------------------------------6-|
A|-4-----4---4----------------7-----7---7-----|
E|----4-----4---5--0--5--0-5-----7-----7------|


Outro:                                                      (END)
G|-----6--4-----------------------------------------------------|
D|----------6---------------------------------------------------|
A|-4---------------7--------7----7---7--9---11----11------------|
E|------------4-5----5--5------7---------------11-----12--11--9-|

Other versions of This Is The Life

This is the lifeBass tabs
This is the life (Ver. 3)Bass tabs

Almost there ...

Sign in to get your own page with links to favourite songs and more. You are just one click away...

Login with Facebook Login with Google