Log in

One click and you are in

Login with Facebook Login with Google

Why sign up and log in

Guitar Tabs Explorer
Amy MacDonald guitar tabs for The road to home

Guitar tabs

e|------------0-----------------------0------------------------0---------------|
B|----------3----3-----------------1-----1------------------3----3-------------|
G|-------0---------0------------0----------0-------------0---------0-----------|
D|-----0--------------0------2----------------2-------0--------------0---------|
A|-------------------------3---------------------------------------------------|
E|--3---------------------------------------------3----------------------------|

e|------------0---------------------0-------------------------0--------------|
B|---------3----3----------------3-----3-------------------1-----1-----------|
G|-------0--------0-----------0----------0--------------0----------0---------|
D|-----0------------0-------0--------------0--------2---------------2--------|
A|-----------------------------------------------3---------------------------|
E|--3--------------------3---------------------------------------------------|

e|--------------0------------------------0-------------------------0------------|
B|-----------3----3-------------------3----3--------------------1----1----------|
G|--------0---------0-------------0-----------0---------------0--------0--------|
D|------0-------------0--------0----------------0----------2-------------2------|
A|------------------------------------------------------3-----------------------|
E|--3---------------------3-----------------------------------------------------|

e|-----------0------------------------0-------------------0--------------------|
B|--------1----1-------------------3-----3--------------3----3-----------------|
G|------0--------0---------------0----------0---------0--------0---------------|
D|----2------------2----------0---------------0-----0-------------0------------|
A|--3--------------------------------------------------------------------------|
E|-----------------------3------------------------3----------------------------|

e|-----------3-------------------3-----------------------0----------------------|
B|---------2---2--------------2-----2-----------------3-----3-------------------|
G|------3--------3---------3----------3------------0----------0-----------------|
D|----0-------------0----0---------------0-------0---------------0--------------|
A|--0------------------0--------------------------------------------------------|
E|--------------------------------------------3---------------------------------|

Other versions of The Road To Home

The road to homeChords
The road to home (Ver. 2)Chords

Almost there ...

Sign in to get your own page with links to favourite songs and more. You are just one click away...

Login with Facebook Login with Google