Log in

One click and you are in

Login with Facebook Login with Google

Why sign up and log in

Guitar Tabs Explorer
Amy MacDonald bass tabs for Run

Bass tabs

Artist - Amy MacDonald
Song - Run
Album - This Is The Life
Track - 5
Bassist - Jamie Sefton
VERSE 1
G-----------------------------------------------|
D-----------------------------------------------|
A-----------------------44---344---44---344-4/6-|
E-44---344---44---344---------------------------|

G-----------------------------------------------|
D-----------------------------------------------|
A-----------------------44----44-----44----4----|
E-44---44---44---44---4------4------------4-6-4-|


PRE CHORUS
G----------------------------------------------|
D----------------------------------------------|
A-------------------------44----44----44----44-|
E-66---466---466---466---4-----4-----4-----4---|

G----------------------------------------------|
D----------------------------------------------|
A--------------------6-6-----------------------|
E-44---444---344---44-6--44---444---344---444--|

G----------------------------------------------|
D----------------------------------------------|
A-------------------------44---444---444---444-|
E-66---666---666---666---6---------------------|

G------------------------------------------|
D------------------------------------------|
A-466--666---666---666---66666666666666666-|
E------------------------------------------|

CHORUS
G------------------------------------------------|
D------------------------------------------------|
A--------------------6-6-------------------------|
E-44---444---444---44-6---44---444---444---44024-|

G------------------------------------------------|
D------------------------------------------------|
A-44---444----44---44644--44---444---44-4-4-4-4--|
E------------4-------------------------4-4-4-4-4-|

G------------------------------------------------|
D------------------------------------------------|
A-------------------------33---333----33---333---|
E-66---466---466---466---4-----------4-----------|

G------------------------------------------------|
D------------------------------------------------|
A-44---444---466---666---6-----------------------|
E-------------------------44---444---444---444---|

Short Rest


VERSE 2 (not sure about this)
G--------------------------------------------|
D--------------------------------------------|
A-----------------6-6--------------------6-6-|
E-44---444---344---6---44---444---44------6--|

G-----------------------------------------------|
D----------------6--6---------------------------|
A-44---444---44/6--6---44---444----44---4/6-4---|
E---------------------------------4-----------6-|

G----------------------------------------------|
D----------------------------------------------|
A----------------------------------------------|
E-44---444---344---444---44---444---344---444--|

G-------------------------------------------------|
D---------------------------------------------6---|
A-44---444----44---444---644---444---444--4/6--4--|
E------------4----------------------------------6-|


PRE CHORUS
G--------------------------------------|
D--------------------------------------|
A--------------------4~~~~~~~~---------|
E-6~~~~~~~~----------------------------|

G----------------------------------------|
D----------------------------------------|
A--------------6-6-----------------------|
E-4-4-4-4-4-4-4-6--44---444---344---444--|

G--------------------------------------|
D--------------------------------------|
A--------------------4~~~~~~~~-44------|
E-6~~~~~~~~-------------------4--------|

G------------------------------------------------------|
D-------------------------/13-13-13-13-13-13-13--13----|
A-66666666-666666686666666---------------------13--13--|
E---------6--------------------------------------------|


CHORUS: SAME AS BEFORE


ENDING
G----------------------------------------|
D----------------------------------------|
A---------------------3~~~~~~~~~~~~~~~~~-|
E-6~~~~~~~~~~~~~~~~~~--------------------|

G----------------------------------------|
D----------------------------------------|
A-4~~~~~~~~~-6~~~~~~~~-------------------|

↓ Add and view comments below ↓

What do you think about this song and these tabs?

Add your comments, questions, rant or a thumbs up below.

Almost there ...

Sign in to get your own page with links to favourite songs and more. You are just one click away...

Login with Facebook Login with Google