Log in

One click and you are in

Login with Facebook Login with Google

Why sign up and log in

Guitar Tabs Explorer
Amy MacDonald bass tabs for Mr rock n roll

Bass tabs

Artist - Amy MacDonald
Song - Mr Rock & Roll
Album - This Is The Life
Track - 1
Bassist - Jamie Sefton
Verse
G-------------------|
D-------------------|
A-------------------|
E-5---5---5---5-5-0-| X4

G-------------------|
D-------------------|
A-5---5---5---5-5-7-|
E-------------------| X1

G-------------------|
D-------------------|
A-5---5---5---5-5-4-|
E-------------------| X1

G-------------------|
D-------------------|
A-------------------|
E-5---5---5---5-5-0-| X5

G-------------------|
D-------------------|
A-------------------|
E-5---5---7---9-----| X1

G-------------------|
D-------------------|
A-5---5---5---5-5-7-|
E-------------------| X1

G-------------------|
D-----------------7-|
A-5---5---5---55/7--|
E-------------------| X1

G-------------------|
D-------------------|
A-------------------|
E-5---5---5---5-5-0-| X1

G-------------------|
D-------------------|
A-------------------|
E-5---5---5---5-5-2-| X1

CHORUS
G-------------------|
D-------------------|
A-------------------|
E-0---0---0---0-0-5-| X1

G-------------------|
D-------------------|
A-7---7---7---7-7-4-|
E-------------------| X1

G-------------------|
D-------------------|
A-2---2---2---2-2-0-|
E-------------------| X1

G---------------4---|
D---------2/4-4---4-|
A-2---2-------------|
E-------------------| X1

G-------------------|
D-------------------|
A-------------------|
E-0---0---0---0-0-5-| X1

G-------------------|
D-------------------|
A-7---7---7---7-7-4-|
E-------------------| X1

G-------------------|
D-------------------|
A-2---2---2---2-2-0-|
E-------------------| X1

G-------------------|
D-------------------|
A-7~~~~~------------|
E-------------------| X1

PRE-VERSE
G-------------------|
D-------------------|
A-------------------|
E-5---5---5---5-5-0-| X3

G-------------------|
D-------------------|
A-------------------|
E-5---5---5---5-4-2-| X1

REPEAT VERSE
REPEAT CHORUS

PRE-BRIDGE
G-------------------|
D-------------------|
A-------------------|
E-5---5---5---5-5-0-| X3

G-------------------|
D-------------------|
A-----------------5-|
E-5---5---5---5-5---| X1


BRIDGE
G-------------------|
D-------------------|
A-2---2---2---2-2-0-|
E-------------------| X1

G-------------------|
D-------------------|
A-7---7---7---7-7-7-|
E-------------------| X1

G------------------7-|
D---------------5/7--|
A-5---5---5---5------|
E--------------------| X1

G-------------------|
D-------------------|
A-----------------5-|
E-5---5---5---5/7---| X1

G-------------------|
D-------------------|
A-2---2---2---2-2-0-|
E-------------------| X1

G-------------------|
D-------------------|
A-7---7---7---7-7-7-|
E-------------------| X1

G-------------------|
D-------------------|
A-5---5---5---5-5---|
E-------------------| X1

G-------------------|
D-------------------|
A-7---7---7---7-7---|
E-----------------7-| X1

G-------------------|
D-------------7-----|
A-7---7---7/9---9---|
E-----------------7-| X1


VERSE
G-------------------|
D-------------------|
A-------------------|
E-5---5---5---5-5-0-| X3

G-------------------|
D-------------------|
A-------------------|
E-5---5---7---9-----| X1

G-------------------|
D-------------------|
A-5---5---5---5-5-7-|
E-------------------| X1

G-------------------|
D-----------------7-|
A-5---5---5---55/7--|
E-------------------| X1

G-------------------|
D-------------------|
A-------------------|
E-5---5---5---5-5-0-| X1

G-------------------|
D-------------------|
A-------------------|
E-5---5---5---5-5-2-| X1


CHORUS
G-------------------|
D-------------------|
A-7---7---7---7-7-4-|
E-------------------| X1

G-------------------|
D-------------------|
A-7---7---7---7-9---|
E--------7---7------| X1

G-------------------|
D-------------------|
A-2---2---2---2-2-0-|
E-------------------| X1

G-------------------|
D---------2-22-4----|
A-2---2-------------|
E-------------------| X1

G-------------------|
D-------------------|
A-------------------|
E-0---0---0---0-0-5-| X1

G-------------------|
D-------------------|
A-7---7---7---7-7-4-|
E-------------------| X1

G-------------------|
D-------------------|
A-2---2---2---2-2-0-|
E-------------------| X1

G-------------------|
D-------------------|
A-7~~~~~------------|
E-------------------| X1


ENDING
G-------------------|
D-------------------|
A-------------------|
E-5---5---5---5-5-0-| X2

G---------------------------|
D---------------------------|
A---------5/7-5/7-----------|

Almost there ...

Sign in to get your own page with links to favourite songs and more. You are just one click away...

Login with Facebook Login with Google