Log in

One click and you are in

Login with Facebook Login with Google

Why sign up and log in

Guitar Tabs Explorer
Amy MacDonald bass tabs for A wish for something more

A Wish For Something More bass tab by Amy MacDonald

Amy MacDonald bass tabs for A wish for something more

Bass tabs

Intro & Verse 1: (NO BASS)


Verse 2:
G|-------------------------------------------------------------------|
D|-------5--5--------5--5--------5--5--------5--5---------5--5-------|
A|------------5--5\-------5--5\-------5--5\-------5--5\--------5--5\-|
E|-10\3--------------------------------------------------------------|

G|--------------------------------------|
D|--------------------------------------|
A|-------5--5\-------5--5\-------5--5-4-|
E|-3--3---------3--3--------3--3--------|
Chorus 1:
G|----------------------------------------------------------------|
D|-------------3--3--3--3-----------------------------------------|
A|-3--3--3--3--------------5--5--5--5---10--10--10--10\3--3--3--3-|
E|----------------------------------------------------------------|

G|---------------------------------------------------------------------|
D|-3--3--3--3--------------------------------------3--3--3--3----------|
A|-------------5----5--5---10--10--10--10\3---3--3------------5---5--5-|
E|---------------5--------------------------3-------------------5------|

                                                  (Break)
G|---------------------------------------------------|
D|-5--5--5-3-2---------------3--3--3--3------------5-|
A|-------------5---3---3--3--------------5---5--5----|
E|-------------------3---------------------5---------|

Interlude: (NO BASS)


Verse 3:
G|-------------------------------------------------------------------|
D|-------5--5--------5--5--------5--5--------5--5---------5--5-------|
A|------------5--5\-------5--5\-------5--5\-------5--5\--------5--5\-|
E|-10\3--------------------------------------------------------------|

G|-------------------------------------------------------------|
D|-5--5--------5--5--------5--5--------5--5---------5--5-------|
A|------5--5\-------5--5\-------5--5\-------5--5\--------5--5\-|
E|-------------------------------------------------------------|

G|--------------------------|
D|--------------------------|
A|-------5--5\-------5--5-4-|
E|-3--3---------3--3--------|

Chorus 2:
G|----------------------------------------------------------------|
D|-------------3--3--3--3-----------------------------------------|
A|-3--3--3--3--------------5--5--5--5---10--10--10--10\3--3--3--3-|
E|----------------------------------------------------------------|

G|---------------------------------------------------------------------|
D|-3--3--3--3--------------------------------------3--3--3--3----------|
A|-------------5----5--5---10--10--10--10\3---3--3------------5---5--5-|
E|---------------5--------------------------3-------------------5------|

G|------------------------------------------------------------------------|
D|-5--5--5-3-2---------------3--3--3--3------------5--5--5--5--5--5--5--5-|
A|-------------5---3---3--3--------------5---5--5-------------------------|
E|-------------------3---------------------5------------------------------|


Bridge:
G|--------------------------------------------------|
D|-5--5---3--3---5--5-------5--5---3--3---5--5------|
A|--------------------5--5---------------------5--5-|
E|--------------------------------------------------|

G|-------------------------------------------------|
D|-5--5---3--3---5--5-------5--5--5--5--5--5--5--5-|
A|--------------------5--5-------------------------|
E|-------------------------------------------------|


Chorus 3:
G|----------------------------------------------------------------|
D|-------------3--3--3--3-----------------------------------------|
A|-3--3--3--3--------------5--5--5--5---10--10--10--10\3--3--3--3-|
E|----------------------------------------------------------------|

G|---------------------------------------------------------------------|
D|-3--3--3--3--------------------------------------3--3--3--3----------|
A|-------------5----5--5---10--10--10--10\3---3--3------------5---5--5-|
E|---------------5--------------------------3-------------------5------|

                   (Break)
G|-------------------|
D|-5-5-4-3-2-1-------|
A|-------------5-4-3-|
E|-------------------|


Outro: (NO BASS)

Symbol \ Slide Down

Almost there ...

Sign in to get your own page with links to favourite songs and more. You are just one click away...

Login with Facebook Login with Google