Log in

One click and you are in

Login with Facebook Login with Google

Why sign up and log in

Guitar Tabs Explorer
The Maccabees bass tabs for X-ray

Bass tabs

Intro:          then:
G---------------------------------  ----------------------------------------|
D---------------------------------  ----------------------------------------|
A---9-----------------5-----7-----X2-----9--9-9-----12--------5--5-5---------|X2
E---------------------------------  ----------------------------------------|
Verse: 1a X2

G-----------------------------------------------------|
D-----------------------------------------------------|
A--9-9-7-9--9-7-9--9-7-9-12---5-5-5-5--5-5-5--5-5-5-5-|
E-----------------------------------------------------|

G-----------------------------------------------------------------------------|
D-----------------------------------------------------------------------------|
A--9-9-7-9--9-7-9--9-7-9-12---17-17-17-17-16-16-16-16-14-14-14-14-12-12-12-12-|
E-----------------------------------------------------------------------------|


Verse: 1b X2

G----------------------------------------------------|
D----------------------------------------------------|
A---------------------------5-5-5-5--5-5-5--5-5-5-5--|
E--2-2-0-2--2-0-2--2-0-2-5---------------------------|


Verse: 1a X2


Bridge: a

G----------------------------------------------------|
D----------------------------------------------------|
A--9--9--9--9--9--9--9--9--9--5--5--5--5--5--5--5--5-|X2
E----------------------------------------------------|

Bridge: b (played at double the speed of bridge a) X2


Bridge: c (once)
G----------------------------------------------------|
D----------------------------------------------------|
A---9--9--9--9---9---12--------5---5--5---5--5---5---|
E----------------------------------------------------|


Verse: 1a X2


Verse: 1b X2


Verse: 1a X2


Bridge: a X2


Bridge: b X2

Interlude:

G------------------------------------------------------|
D------------------------------------------------------|
A----9----------9--9---12-----------5------5--5-----5--| X6
E------------------------------------------------------|


Verse: 1a X2

Almost there ...

Sign in to get your own page with links to favourite songs and more. You are just one click away...

Login with Facebook Login with Google