Log in

One click and you are in

Login with Facebook Login with Google

Why sign up and log in

Guitar Tabs Explorer
The Maccabees bass tabs for No kind words

Bass tabs

---------------------------------------------------------------------------
			   NO KIND WORDS - THE MACCABEES
---------------------------------------------------------------------------

Tabbed By : wilf_hall
e-mail: wilf_hall@hotmail.co.uk

Tuning: standard

My first ever tab, comments and corrections welcome...

G|----------------------------------------------------------------------|
D|----------------------------------------------------------------------|
A|----------------------------------------------------------------------| x3
E|-5-5-5-5-5-5-5-5-(x8)--1-1-1-1-1-1-1-1-(x4)---------------------------|

G|----------------|-----------------------------------------------------|
D|----------------|-----------------------------------------------------|
A|----------------|-----------------------------------------------------| x1
E|-5-5/-8/-12-(x2)|-1-1-1-1-1-1-1-1-(x4)--------------------------------|
_

G|----------------------------------------------------------------------|
D|----------------------------------------------------------------------|
A|----------------------------------------------------------------------| x1
E|-5-5-5-5-5-5-5-5-(x8)--1-1-1-1-1-1-1-1-(x4)---------------------------|

G|----------------|-----------------------------------------------------|
D|----------------|-----------------------------------------------------|
A|----------------|-----------------------------------------------------| x1
E|-5-5/-8/-12-(x2)|-1-1-1-1-1-1-1-1-(x4)--------------------------------|
_

G|----------------------------------------------------------------------|
D|----------------------------------------------------------------------|
A|----------------------------------------------------------------------|
E|-5-5-5-5-5-5-5-5-(x4)-/--10-10-10-10-10-10-10-10-(x4)-----------------|

G|-----------------------|
D|-----------------------|
A|-----------------------|
E|-5-5-5-5-5-5-5-5-(x4)--|
_

G|----------------------------------------------------------------------|
D|----------------------------------------------------------------------|
A|----------------------------------------------------------------------| x5
E|-5-5-5-5-5-5-5-5-(x4)-1-1-1-1-1-1-1-1-(x4)----------------------------|


| / slide up
| \ slide down
| h hammer-on
| p pull-off
| ~ vibrato
| + harmonic
| x Mute note

Almost there ...

Sign in to get your own page with links to favourite songs and more. You are just one click away...

Login with Facebook Login with Google