Log in

One click and you are in

Login with Facebook Login with Google

Why sign up and log in

Guitar Tabs Explorer
The Maccabees bass tabs for Forever ive known

Forever I've Known bass tab by The Maccabees

The Maccabees bass tabs for Forever ive known

Bass tabs

-------------------------------------------------------------------------------
               Forever I’ve Known – The Maccabees
-------------------------------------------------------------------------------
Tabbed by: Clowesy
E-mail: eleanorclowes@hotmail.com
Tuning:EADG


Main riff (0.07-1.22):
G|---------------------------------------------------------------------------|
D|---------------------7-5------------------7------5-------------------------|
A|5------------5-7-8-5--------------5-7-8-5----------------------------------|
E|---------------------------------------------------------------------------|
Play this 8 times


Chorus (1.23-1.40):
G|---------------------------------------------------------------------------|
D|---------------------------------------------------------------------------|
A|-----------------------10-8--------------------10-----8--------------------|
E|8------------8-10-11-8---------------8-10-11-8-----------------------------|
Play this twice



Main riff again 4 times (1.41-2.17)



Chorus again twice (2.18-2.36)



Break (2.37-2.53)


Riff 2 (2.54-3.46):


Riff 2 is in 2 parts:
G|------------------------------------------------|
D|-------7-----------7-----------7-----------7----|
A|5--5-5---5--5--5-5---5--5--5-5---5--5--5-5---5--|
E|------------------------------------------------|

G|-------7----------7-----------7-----------7-----|
D|5--5-5---5--5--5-5--5--5--5-5---5--5--5-5---5---|
A|------------------------------------------------|
E|------------------------------------------------|

Repeat riff 2 6 times


Break (3.47-4.42)


Riff 2 again 4 times (4.43-5.18)


| / slide up
| \ slide down
| h hammer-on
| p pull-off
| ~ vibrato
| + harmonic
| x Mute note

Almost there ...

Sign in to get your own page with links to favourite songs and more. You are just one click away...

Login with Facebook Login with Google