Log in

One click and you are in

Login with Facebook Login with Google

Why sign up and log in

Guitar Tabs Explorer
The Maccabees bass tabs for Can you give it

Bass tabs

---------------------------------------------------------------------------
			   Can You Give It – The Maccabees
---------------------------------------------------------------------------


Intro
G|----------------------------------------|
D|---------------------------------5------|
A|----------7-10-7---------------7---7----|x6
E|-8-8888--8-------------5-5555-------5---|

G|------------------|
D|----------5-------|
A|-3~~~~-7---77-5---|x2
E|------------------|

G|--------------------------------|
D|-7~~~~----10~~------------------|
A|-----------------3~~~~----(7)---|x2
E|--------------------------------|

G|------------------|
D|----------5-------|
A|-3-~-~-7---77-5--|x4
E|------------------|

G|--------------------------------|
D|-7~~~~----10~~------------------|
A|-----------------3~~~~----(7)---|
E|--------------------------------|

G|------------------------------------|
D|-7~~~~----10~~--------------5-------|
A|-----------------3~~~~----7---77-5--|x2
E|------------------------------------|

G|---------------------------------|
D|-------------------------5-------|
A|-3-3333-3-3333-3-3333--7---77-5--|x4
E|---------------------------------|

G|------------------------------------|
D|----------------------------5-------|
A|---------7-10-7-----------7---7-5---|x4
E|-8888-8-8-----------5555-5----------|

G|---------------|-----------|
D|---------------|---5-------|
A|-----pause-----|-7---77-5--|
E|---------------|-----------|=>

G|---------------------------------|
D|-------------------------5-------|
A|-3-3333-3-3333-3-3333--7---77-5--|x4
E|---------------------------------|

G|----------------------------------------|
D|---------------------------------5------|
A|----------7-10-7---------------7---7----|x3
E|-8-8888--8-------------5-5555-------5---|

G|------------------------|
D|------------------------|
A|----------7-10-7--------|
E|-8-8888--8--------8~~~--|

Almost there ...

Sign in to get your own page with links to favourite songs and more. You are just one click away...

Login with Facebook Login with Google