Log in

One click and you are in

Login with Facebook Login with Google

Why sign up and log in

Guitar Tabs Explorer
Doe Maar bass tabs for Winnetoe

Bass tabs

-------------------------------------------------------------------------------
                             Winnetoe - Doe Maar
-------------------------------------------------------------------------------
Tabbed by: RonnieDeRakker
E-mail:

This tab should be correct, although I'm not completely sure about the first part. If you think it's
different, please let me know!
Tuning: EADG

G|----------------------------------------------------------|
D|-----1-------------------1--------------------------------|
A|--3-3-----3-3/4-1-----3-3-----3-3/4-1---------------------|
E|-3-3-----3-3---------3-3-----3-3--------------------------| 2x

G|----------------------------------------------------------|
D|----------------------------------------------------------|
A|---3-5-5---3-5-5----1-3-3---1-3-3-------------------------|
E|-5-------5--------3-------3-------3-----------------------| 2x

G|----------------------------------------------------------|
D|-----------------------3-5-5---3-5-5------1-3-3---1-3-3---|
A|---3-5-5---3-5-5-----5-------5-------5--3-------3-------3-|
E|-5-------5-------5----------------------------------------|

G|---0-2-2---0-2-2------------------------------------------|
D|-2-------2-------2----3-5-5---3-5-5-----------------------|
A|--------------------5-------5-----------------------------|
E|----------------------------------------------------------|

G|----------------------------------------------------------|
D|---1-3-3----3-5-5-----------------------------------------|
A|-3--------5----------1-3-3-3-1----------------------------|
E|-------------------3-----------3--------------------------| 2x

G|----------------------------------------------------------|
D|---1-3-3----3-5-5----1-3-3----1-3-3-----------------------|
A|-3--------5--------3--------3-----------------------------|
E|----------------------------------------------------------|

G|----------------------------------------------------------|
D|-------------2----------------2---2-----------------------|
A|---1-3-3-1-3---3-1----1-3-3-1---3---3---------------------|
E|-3------------------3-------------------------------------| 2x

Block above is repeated with slight differences

G|----------------------------------------------------------|
D|-----1-------------------1--------------------------------|
A|--3-3-----3-3/4-1-----3-3-----3-3/4-1/--------------------|
E|-3-3-----3-3---------3-3-----3-3--------------------------|

G|----------------------------------------------------------|
D|----------------------------------------------------------|
A|---3-5-5---3-5-5----1-3-3---1-3-3-------------------------|
E|-5-------5--------3-------3-------3-----------------------| 2x

G|----------------------------------------------------------|
D|-----------------------3-5-5---3-5-5------1-3-3---1-3-3---|
A|---3-5-5---3-5-5-----5-------5-------5--3-------3-------3-|
E|-5-------5------------------------------------------------|

G|---0-2-2---0-2-2------------------------------------------|
D|-2-------2------------3-5-5---3-5-5-----------------------|
A|--------------------5-------5-----------------------------|
E|----------------------------------------------------------|

G|----------------------------------------------------------|
D|---1-3-3----3-5-5-----------------------------------------|
A|-3--------5----------1-3-3-3-1----------------------------|
E|-------------------3-----------3--------------------------| 2x

G|----------------------------------------------------------|
D|---1-3-3----3-5-5----1-3-3----1-3-3-----------------------|
A|-3--------5--------3--------3-----------------------------|
E|----------------------------------------------------------|

G|----------------------------------------------------------|
D|-------------2----------------2---2-----------------------|
A|---1-3-3-1-3---3-1----1-3-3-1---3---3---------------------|
E|-3------------------3-------------------------------------| 4x


| /  slide up
| \  slide down
| h  hammer-on
| p  pull-off
| ~  vibrato
| +  harmonic
| x  Mute note

↓ Add and view comments below ↓

What do you think about this song and these tabs?

Add your comments, questions, rant or a thumbs up below.

Almost there ...

Sign in to get your own page with links to favourite songs and more. You are just one click away...

Login with Facebook Login with Google