Log in

One click and you are in

Login with Facebook Login with Google

Why sign up and log in

Guitar Tabs Explorer
Doe Maar bass tabs for Liever dan lief

Bass tabs with lyrics

Doe Maar - Liever Dan Lief (Basstab)
intro:
---------------  -------------- ----------------
---------------  -------------- ----------------
-7-----------7-  -7---------7-- -7-----------7--
---5-5-5-8-----  ---5-5-5-8---- ---5-5-5-8------

na intro, vlak voor eerste couplet:
--------------
--------------
-7------------
---5-5-5-3----

couplet:
-------------------
-------------------
-3--------3--------
---1-1-1----1-1-1--
K-Kom niet bij me klagen

---------------------
-5--------5---------
----3-3-3----3-3-3
---------------------
Kom niks aan me vragen, neehee

---------------------
---------------------
-5--------5---------
----3-3-3----3-3-3
kheb het wel gezegd, kheb het wel gezegd, kheb het wel gezegd dat je beter bij mij kon

------------------
------------------
-7----------7-----
----5-5-5---5-5-5-
blijven, ahoehahaa

couplet 2:
--------------------
--------------------
-3--------3--------
---1-1-1----1-1-1--
Jij was zo verstandig

--------------------
-5--------5---------
----3-3-3----3-3-3--
--------------------
Zo netjes en zo handig

-------------------
-------------------
-5--------5--------
----3-3-3----3-3-3-
kheb het wel gezegd, kheb het wel gezegd, kheb het wel gezegd dat je beter bij mij kon
------------------
------------------
-7----------7-----
----5-5-5---5-5-5-
zijn

Refrein:
-------
-------
-3-5---
-------
jij past

------------------------
------------------------
-7---------7------------
----5-5-5---5-5-5-------
beter bij, beter bij, beter bij mij ? want ik ben

------------------------
------------------------
-7---------7------------
----5-5-5---5-5-5-------
liever dan, liever dan, liever dan hij

------------------------
------------------------
-7---------1------------
----5-5-5---3-3-3-------
beter bij, beter bij, beter bij mij .want ik ben

--------------------------
--------------------------
--------------------------
-----3--1--0--------------
liever dan, liever dan, lief, veel liever dan hij

--------------------------
--------------------------
-7----------7-------------
---5-5-5----5-5-5--3------
kheb het wel gezegd, kheb het wel gezegd

couplet 3:
------------------------
------------------------
--3---------3-----------
-----1-1-1------1-1-1---
ahw, kom je niets verwijten

--------------------------
-5-------------5----------
-----3-3-3--------3-3-3---
--------------------------
maar jij wou zo graag pleite awahaa

-------------------------
-------------------------
---5-----------5---------
-----3-3-3--------3-3-3--
kheb het wel gezegd, kheb het wel gezegd, kheb het wel gezegd dat je beter bij mij kon

--------------------
--------------------
-7----------7-------
----5-5-5---5-5-5---
blijven, ahoehahaa

couplet 4:
-------------------
-------------------
-3--------3--------
---1-1-1----1-1-1--
Dus kom niks aan me vragen, aahw

---------------------
-5--------5----------
----3-3-3----3-3-3---
---------------------
Nee kom niet bij me klagen, nee

--------------------
--------------------
-5--------5---------
----3-3-3----3-3-3--
kheb het wel gezegd, kheb het wel gezegd, kheb het wel gezegd dat je beter bij mij kon

---------------------
---------------------
-7----------7--------
----5-5-5---5-5-5----
zijn

Refrein:
--------
--------
-3-5----
--------
jij past

----------------------------
----------------------------
-7---------7----------------
----5-5-5---5-5-5----------
beter bij, beter bij, beter bij mij  . want ik ben

----------------------------
----------------------------
-7---------7---------------
----5-5-5---5-5-5----------
liever dan, liever dan, liever dan hij

----------------------------
----------------------------
-7---------1----------------
----5-5-5---3-3-3-----------
beter bij, beter bij, beter bij mij? want ik ben

----------------------------
----------------------------
----------------------------
-----3--1--0----------------
liever dan, liever dan, lief, veel liever dan hij

----------------------------
----------------------------
-7----------7---------------
---5-5-5----5-5-5--3--------

trompetgedeelte:

----------------------------
----------------------------
-3----------3---------------
---1-1-1------1-1-1---------

----------------------------
----------------------------
-3----------3---------------
---3-3-3-------3-3-3--------
hit it, hit it, hit it
----------------------------
----------------------------
-5----------5---------------
---3-3-3-------3-3-3--------

----------------------------
----------------------------
-7----------7---------------
---8-5-8-------8-5-8--------
ooooooh hit it, hit it, hit it

----------------------------
----------------------------
-3----------3---------------
---1-1-1------1-1-1---------

----------------------------
----------------------------
-3----------3---------------
---3-3-3-------3-3-3-------

----------------------------
----------------------------
-5----------5---------------
---3-3-3-------3-3-3--------
oooooh hit it, hit it, hit it,

----------------------------
----------------------------
-7----------7---------------
---8-5-8-------8-5-8--------

Refrein:
-------
-------
-3-5---
-------
jij past

----------------------------
----------------------------
-7---------7----------------
----5-5-5---5-5-5-----------
beter bij, beter bij, beter bij mij ? want ik ben


----------------------------
----------------------------
-7---------7----------------
----5-5-5---5-5-5------------
liever dan, liever dan, liever dan hij

----------------------------
----------------------------
-7---------1----------------
----5-5-5---3-3-3-----------
beter bij, beter bij, beter bij mij .want ik ben

----------------------------
----------------------------
----------------------------
-----3--1--0----------------
liever dan, liever dan, lief, veel liever dan hij

----------------------------
----------------------------
-7----------7---------------
---5-5-5----5-5-5--3--------

Refrein:
--------
--------
-3-5----
--------
jij past

------------------------
------------------------
-7---------7------------
----5-5-5---5-5-5-------
beter bij, beter bij, beter bij mij  . want ik ben

----------------------------
----------------------------
-7---------7----------------
----5-5-5---5-5-5-----------
liever dan, liever dan, liever dan hij

----------------------------
----------------------------
-7---------1----------------
----5-5-5---3-3-3-----------
beter bij, beter bij, beter bij mij .want ik ben

----------------------------
----------------------------
----------------------------
-----3--1--0---------------
liever dan, liever dan, lief, veel liever dan hij


Outro:
----------------------------
----------------------------
-7----------7---------------
---5-5-5----5-5-5--3--------
kheb t wel gezegd, kheb t wel gezegd,

----------------------------
----------------------------
-7----------7----------------
---5-5-5----5-5-5--3---------
kheb t wel gezegd, kheb t wel gezegd,

------------
------------
-7----------
---5-5-5----
kheb t wel gezegd,

----------------
----------------
--7-------------
-----3-5-3------
kheb t wel gezegd!

Almost there ...

Sign in to get your own page with links to favourite songs and more. You are just one click away...

Login with Facebook Login with Google