Log in

One click and you are in

Login with Facebook Login with Google

Why sign up and log in

Guitar Tabs Explorer
Doe Maar bass tabs for Grote broer

Bass tabs with lyrics

Tuning: Standard (E A D G)

Key: Eb

Difficulty: Novice

Doe Maar - Grote Broer
Intro:
G|-----------------|-----------------|-----------------|-----------------|
D|-----------------|-----------------|-----------------|-----------------|
A|-3-3-----4-4-----|-3-3-----4-4-----|-3-3-----4-4-----|-3-3-----4-4-----|
E|-----------------|-----------------|-----------------|-----------------|

G|-----------------|-----------------|-----------------|-----------------|
D|-----------------|-----------------|-----------------|-----------------|
A|-3-3-----4-4-----|-3-3-----4-4-----|-3-3-----4-4-----|-3-3-----4-4-----|
E|-----------------|-----------------|-----------------|-----------------|


Verse 1:
Ik kan niet slapen maar de dokter zegt (dat is normaal)
G|-----------------|-----------------|-----------------|-----------------|
D|-----------------|-----------------|-----------------|-----------------|
A|-3-3-----4-4-----|-3-3-----4-4-----|-3-3-----4-4-----|-3-3-----4-4-----|
E|-----------------|-----------------|-----------------|-----------------|

Ik kan niet slapen en de dokter zegt: neem een pil voor de nacht
G|-----------------|-----------------|-----------------|-----------------|
D|-----------------|-----------------|-----------------|-----------------|
A|-3-3-----4-4-----|-3-3-----4-4-----|-3-3-----4-4-----|-3-3-----4-4-----|
E|-----------------|-----------------|-----------------|-----------------|

Geef me een borrel en een sigaret, en een pil voor de nacht
G|-----------------|-----------------|-----------------|-----------------|
D|-----------------|-----------------|-----------------|-----------------|
A|-3-3-----4-4-----|-3-3-----4-4-----|-3-3-----4-4-----|-3-3-----4-4-----|
E|-----------------|-----------------|-----------------|-----------------|

Geef me een borrel en een sigaret, en een pil voor de nacht (slaap zacht)
G|-----------------|-----------------|-----------------|-----------------|
D|-----------------|-----------------|-----------------|-----------------|
A|-3-3-----4-4-----|-3-3-----4-4-----|-3-3-----4-4-----|-3-3-----4-4-----|
E|-----------------|-----------------|-----------------|-----------------|

Pre-chorus:
Er is een vrouw gevonden in haar nachtjapon. Koud op het beton, dacht dat ze vliegen kon
G|-----------------|-----------------|-----------------|-----------------|
D|-----------------|-----------------|-----------------|-----------------|
A|-----------------|-----------------|-----------------|-----------------|
E|-4-4-----4-4-----|-4-4-----4-4-----|-4-4-----4-4-----|-4-4-----4-4-----|

De lucht is grauw d'r hangt iets aan de horizon. Het regent pijpestelen
G|-----------------|-----------------|-----------------|-----------------|
D|-----------------|-----------------|-----------------|-----------------|
A|-----------------|-----------------|-----------------|-----------------|
E|-4-4-----4-4-----|-4-4-----4-4-----|-1-1-----1-1-----|-1---3---4---6---|


Chorus:
Grote broer is hier. Grote broer is hier Grote broer is hier en hij is wakker
G|-----------------|------------------|-----------------|---------------------|
D|-----------------|---------12--10---|-----------------|---------12--10-10---|
A|-6-6----6-6------|-6-6-------13--12\|-6-6-----6-6-----|-6-6-------13-----12\|
E|-----------------|------------------|-----------------|---------------------|

Grote broer is hier en ziet alles. En alles is oké. Ja alles is oké. En voor de
G|-----------------|-----------------|-----------------|-----------------|-----------------|
D|-----------------|-----------------|-----------------|-----------------|-----------------|
A|-6-6-----6-6~~/--|-----------------|-----------------|-----------------|-----------------|
E|-----------------|-----------------|-3-3-----3-3-----|-1-1-----6-6-----|-3-3-----3-3-----|

  Bak-     ker
G|-----------------|-----------------|-----------------|-----------------|
D|-----------------|-----------------|-----------------|-----------------|
A|-3-3-----4-4-----|-3-3-----4-4-----|-3-3-----4-4-----|-3-3-----4-4-----|
E|-----------------|-----------------|-----------------|-----------------|


Verse 2:
Ik kan niet slapen maar de dokter zegt: neem een pil voor de nacht
G|-----------------|-----------------|-----------------|-----------------|
D|-----------------|-----------------|-----------------|-----------------|
A|-3-3-----4-4-----|-3-3-----4-4-----|-3-3-----4-4-----|-3-3-----4-4-----|
E|-----------------|-----------------|-----------------|-----------------|

Geef me een borrel en een sigaret, en een pil voor de nacht (slaap zacht)
G|-----------------|-----------------|-----------------|-----------------|
D|-----------------|-----------------|-----------------|-----------------|
A|-3-3-----4-4-----|-3-3-----4-4-----|-3-3-----4-4-----|-3-3-----4-4-----|
E|-----------------|-----------------|-----------------|-----------------|


Pre-chorus:
Er is een man gevonden aan het koude front. Ver van huis en zonder dat hij wist waarom
G|-----------------|-------------------|-----------------|-----------------|
D|-----------------|-------------------|-----------------|-----------------|
A|-----------------|-------------------|-----------------|-----------------|
E|-4-4-----4-4-----|-4-4-----4-4--1h4p1|-4-4-----4-4-----|-4-4-----4-1-3-4-|

De lucht is grauw d'r hangt iets aan de horizon. Het regent pijpestelen
G|-----------------|-----------------|-----------------|-----------------|
D|-----------------|-----------------|-----------------|-----------------|
A|-----------------|-----------------|-----------------|-----------------|
E|-4-4-----4-4-----|-4-4-----4-4-----|-1-1-----1-1-----|-1---3---4---6---|


Chorus:
Grote broer is hier. Grote broer is hier Grote broer is hier en hij is wakker
G|-----------------|------------------|-----------------|---------------------|
D|-----------------|---------12--10---|-----------------|---------12--10-10---|
A|-6-6----6-6------|-6-6-------13--12\|-6-6-----6-6-----|-6-6-------13-----12\|
E|-----------------|------------------|-----------------|---------------------|

Grote broer is hier en ziet alles. En alles is oké. Ja alles is oké. En voor de
G|-----------------|-----------------|-----------------|-----------------|-----------------|
D|-----------------|-----------------|-----------------|-----------------|-----------------|
A|-6-6-----6-6~~/--|-----------------|-----------------|-----------------|-----------------|
E|-----------------|-----------------|-3-3-----3-3-----|-1-1-----6-6-----|-3-3-----3-3-----|

  Bak-     ker              (slaap zacht)
G|-----------------|-----------------|-----------------|-----------------|
D|-----------------|-----------------|-----------------|-----------------|
A|-3-3-----4-4-----|-3-3-----4-4-----|-3-3-----4-4-----|-3-3-----4-4-----|
E|-----------------|-----------------|-----------------|-----------------|

Interlude:
G|-----------------|-----------------|-----------------|-----------------|
D|-----------------|-----------------|-----------------|-----------------|
A|-3-3-----4-4-----|-3-3-----4-4-----|-3-3-----4-4-----|-3-3-----4-4-----|
E|-----------------|-----------------|-----------------|-----------------|

Keyboard solo:
G|-----------------|-----------------|-----------------|-----------------|
D|-----------------|-----------------|-----------------|-----------------|
A|-3-3-----4-4-----|-3-3-----4-4-----|-3-3-----4-4-----|-3-3-----4-4-----|
E|-----------------|-----------------|-----------------|-----------------|

G|-----------------|-----------------|-----------------|-----------------|
D|-----------------|-----------------|-----------------|-----------------|
A|-3-3-----4-4-----|-3-3-----4-4-----|-3-3-----4-4-----|-3-3-----4-4-----|
E|-----------------|-----------------|-----------------|-----------------|

G|-----------------|-----------------|-----------------|-----------------|
D|-----------6-6-6-|-6-5-------------|-----------6-6-6-|-6-5-------------|
A|-3-3-----4-------|------3--4-------|-3-3-----4-------|------3--4-6-4---|
E|-----------------|-----------------|-----------------|-----------------|

G|-----------------|-----------------|-----------------|-----------------|
D|-----------6-6-6-|-6-5-------------|-----------6-6-6-|-6-5-------------|
A|-3-3-----4-------|------3--4-------|-3-3-----4-------|------3--4-6-4---|
E|-----------------|-----------------|-----------------|-----------------|

G|-----------------|-----------------|-----------------|-----------------|
D|-----------6-6-6-|-6-5-------------|-----------6-6-6-|-6-5-------------|
A|-3-3-----4-------|------3--4-------|-3-3-----4-------|------3--4-6-4---|
E|-----------------|-----------------|-----------------|-----------------|

G|-----------------|-----------------|
D|-----------------|-----------------|
A|-3-3-----4-4-----|-----------------|
E|-----------------|-1---3---4---6---|


Chorus:
Grote broer is hier. Grote broer is hier Grote broer is hier en hij is wakker
G|-----------------|------------------|-----------------|---------------------|
D|-----------------|---------12--10---|-----------------|---------12--10-10---|
A|-6-6----6-6------|-6-6-------13--12\|-6-6-----6-6-----|-6-6-------13-----12\|
E|-----------------|------------------|-----------------|---------------------|

Grote broer is hier en ziet alles. En alles is oké. Ja alles is oké. En voor de
G|-----------------|-----------------|-----------------|-----------------|-----------------|
D|-----------------|-----------------|-----------------|-----------------|-----------------|
A|-6-6-----6-6~~/--|-----------------|-----------------|-----------------|-----------------|
E|-----------------|-----------------|-3-3-----3-3-----|-1-1-----6-6-----|-3-3-----3-3-----|

  Bak-     ker
G|-----------------|
D|-----------------|
A|-3-3-----4-4~~/--|
E|-----------------|

Grote broer is hier. Grote broer is hier Grote broer is hier en hij is wakker
G|-----------------|------------------|-----------------|---------------------|
D|-----------------|---------12--10---|-----------------|---------12--10-10---|
A|-6-6----6-6------|-6-6-------13--12\|-6-6-----6-6-----|-6-6-------13-----12\|
E|-----------------|------------------|-----------------|---------------------|

Grote broer is hier en ziet alles. En alles is oké. Ja alles is..
G|-----------------|-----------------|-----------------|-----------------|
D|-----------------|-----------------|-----------------|-----------------|
A|-6-6-----6-6~~/--|-----------------|-----------------|-----------------|
E|-----------------|-----------------|-3-3-----3-3-----|-1-1-----6-6-----|


Outro:
 ..oké              (alles is oké)                       alles is oké.
G|-----------------|-----------------|-----------------|------------------|
D|-----------------|-----------------|-----------------|---------12--10---|
A|-6-6-----6-6-----|-6-6-----6-6-----|-6-6-----6-6-----|-6-6-------13--12\|
E|-----------------|-----------------|-----------------|------------------|

Alles is oké         Alles is oké           Alles is oké      Alles is oké
G|-----------------|---------------------|-----------------|--------8---7---|
D|-----------------|---------12--10-10---|-------------8-10|~~~~------------|
A|-6-6-----6-6-----|-6-6-------13-----12\|-6-6-----6-------|-6-6------------|
E|-----------------|---------------------|-----------------|----------------|

  Alles is oké       Alles is oké       Alles is oké     Alles is oké
G|-----------------|---------8-7-----|-----------------|-----------------|
D|-------------8-10|~~~~---------10--|-------------8-10|~~~~-------------|
A|-6-6-----6-6-----|-6-6-------------|-6-6-----6-6-----|-6-6-----6-6-----|
E|-----------------|-----------------|-----------------|-----------------|

Glitching outro:
  Alles is oké      Alles is oké       Alles is oké      Alles is oké
G|-----------------|-----------------|-----------------|-----------------|
D|-----------------|-----------------|-----------------|-----------------|
A|-6-6-----6-------|-6-6-----6-------|-6-6-----6-------|-6-6-----6-------|
E|-----------------|-----------------|-----------------|-----------------|

  Alles is oké      Alles is oké       Alles is oké      Alles is oké
G|-----------------|-----------------|-----------------|-----------------|
D|-----------------|-----------------|-----------------|-----------------|
A|-6-6-----6-------|-6-6-----6-------|-6-6-----6-------|-6-6-----6-------|
E|-----------------|-----------------|-----------------|-----------------|

Almost there ...

Sign in to get your own page with links to favourite songs and more. You are just one click away...

Login with Facebook Login with Google